行きたい日付からパパッと検索!航空券の最安値が見つかる!

Ganzhou
Ganzhou Airport

Beijing
Beijing Capital International Airport

 Beijing Capital Airport Ganzhou 

Prices vary with departure date. Click on the calendar to select a departure date.

Departure Date

2020/11
Sun Mon Tue Wed Thu Fri Sat
1------2------3------4------5------6------7------
8------9------10------11------12------13------14------
15------16------17------18------19------20------21------
22------23------24------25------26------27Search28Search
29Search30Search
Select Return Date   Change Departure Date

Return Date

2020/11
SunMonTueWedThuFriSat
1------2------3------4------5------6------7------
8------9------10------11------12------13------14------
15------16------17------18------19------20------21------
22------23------24------25------26------27------28------
29------30------
  Select Departure Date

Currency:US Dollar Loading Searching Fares Updating Fares

Departure Date
Return Date
Total Fares(Round Trip/Economy)

* Displayed fare(s) may differ from the actual search result

  • Ganzhou-Beijing Capital Airport

    November Lowest Airfares -----
  • Ganzhou-Beijing Capital Airport

    December Lowest Airfares -----
  • Ganzhou-Beijing Capital Airport

    January Lowest Airfares -----
  • Ganzhou-Beijing Capital Airport

    February Lowest Airfares -----
  • Ganzhou-Beijing Capital Airport

    March Lowest Airfares -----
  • Ganzhou-Beijing
    Estimated Flight Time

    2Hours30Minutes
  • Ganzhou-Beijing
    Number of Operating Airlines

    4
  • Other Destinations from:Ganzhou

    * Fares vary in accordance to seat availability
  • Other Departures to: Beijing

    * Fares vary in accordance to seat availability

Book Budget Flights with skyticket / Cheap Airfares for Flights from
Ganzhou-Beijing Capital Airport

ステータス:
メッセージ1
メッセージ2
メッセージ3
メッセージ4
メッセージ5
メッセージ6
メッセージ7
メッセージ8
メッセージ9
メッセージ10
メッセージ11
メッセージ12
メッセージ13
メッセージ14