行きたい日付からパパッと検索!航空券の最安値が見つかる!

Hohhot
Hohhot Baita International Airport

Wuhan
Wuhan Tianhe International Airport

 Wuhan Tianhe Airport Baita 

Prices vary with departure date. Click on the calendar to select a departure date.

Departure Date

2020/10
Sun Mon Tue Wed Thu Fri Sat
1------2------3------
4------5------6------7------8------9------10------
11------12------13------14------15------16------17------
18------19------20------21------22------23------24------
25------26------27------28------29------30------31Search
Select Return Date   Change Departure Date

Return Date

2020/10
SunMonTueWedThuFriSat
1------2------3------
4------5------6------7------8------9------10------
11------12------13------14------15------16------17------
18------19------20------21------22------23------24------
25------26------27------28------29------30------31------
  Select Departure Date

Currency:US Dollar Loading Searching Fares Updating Fares

Departure Date
Return Date
Total Fares(Round Trip/Economy)

* Displayed fare(s) may differ from the actual search result

  • Baita-Wuhan Tianhe Airport

    October Lowest Airfares -----
  • Baita-Wuhan Tianhe Airport

    November Lowest Airfares -----
  • Baita-Wuhan Tianhe Airport

    December Lowest Airfares -----
  • Baita-Wuhan Tianhe Airport

    January Lowest Airfares -----
  • Baita-Wuhan Tianhe Airport

    February Lowest Airfares -----
  • Hohhot-Wuhan
    Estimated Flight Time

    1Hours50Minutes
  • Hohhot-Wuhan
    Number of Operating Airlines

    0
  • Other Destinations from:Hohhot

    * Fares vary in accordance to seat availability
  • Other Departures to: Wuhan

    Nanning Wuxu Airport-Wuhan(Tianhe)
    USD380〜
    * Fares vary in accordance to seat availability

Book Budget Flights with skyticket / Cheap Airfares for Flights from
Baita-Wuhan Tianhe Airport

ステータス:
メッセージ1
メッセージ2
メッセージ3
メッセージ4
メッセージ5
メッセージ6
メッセージ7
メッセージ8
メッセージ9
メッセージ10
メッセージ11
メッセージ12
メッセージ13
メッセージ14