行きたい日付からパパッと検索!航空券の最安値が見つかる!

Nantong
Nantong Xingdong Airport

Osaka
Kansai International Airport

 Kansai Airport Xingdong 

Prices vary with departure date. Click on the calendar to select a departure date.

Departure Date

2020/1
Sun Mon Tue Wed Thu Fri Sat
1------2------3------4------
5------6------7------8------9------10------11------
12------13------14------15------16------17------18------
19------20------21------22------23------24------25------
26------27------28------29------30------31367
Select Return Date   Change Departure Date

Return Date

2020/1
SunMonTueWedThuFriSat
1------2------3------4------
5------6------7------8------9------10------11------
12------13------14------15------16------17------18------
19------20------21------22------23------24------25------
26------27------28------29------30------31------
  Select Departure Date

Currency:US Dollar Loading Searching Fares Updating Fares

Departure Date
Return Date
Total Fares(Round Trip/Economy)

* Displayed fare(s) may differ from the actual search result

  • Nantong-Osaka
    Estimated Flight Time

    4Hours55Minutes
  • Nantong-Osaka
    Number of Operating Airlines

    11

Search for the lowest price and the shortest route on skyticket!

Travel overseas with skyticket's budgeted airfares!

From low cost carriers (LCCs) to major airlines - find the cheapest air tickets on skyticket!

Cheap and reasonable airfares for trips abroad! Get the best deals on skyticket!

Reserve your cheap air tickets on skyticket!

Cheap air tickets from Nantong to Osaka on skyticket!

Make your reservation on skyticket in only 3 minutes!

Use skyticket for easy reservation and reasonable fares.

Cheap and reasonable air tickets from skyticket!

Get great deals on the lowest airfares from skyticket!

Book Budget Flights with skyticket / Cheap Airfares for Flights from
Xingdong-Kansai Airport

ステータス:
メッセージ1
メッセージ2
メッセージ3
メッセージ4
メッセージ5
メッセージ6
メッセージ7
メッセージ8
メッセージ9
メッセージ10
メッセージ11
メッセージ12
メッセージ13
メッセージ14