行きたい日付からパパッと検索!航空券の最安値が見つかる!

New York
Newark Liberty International Airport

Shiraz (Iran)
Shiraz International Airport

 Shiraz Airport Newark Liberty 

Prices vary with departure date. Click on the calendar to select a departure date.

Departure Date

2022/8
Sun Mon Tue Wed Thu Fri Sat
1------2------3------4------5------6------
7------8------9------10------11------12------13------
14------15------16------17------18------19Search20Search
21Search22Search23Search24Search25Search26Search27Search
28Search29Search30Search31Search
Select Return Date   Change Departure Date

Return Date

2022/8
SunMonTueWedThuFriSat
1------2------3------4------5------6------
7------8------9------10------11------12------13------
14------15------16------17------18------19------20------
21------22------23------24------25------26------27------
28------29------30------31------
  Select Departure Date

Currency:US Dollar Loading Searching Fares Updating Fares

Departure Date
Return Date
Total Fares(Round Trip/Economy)

* Displayed fare(s) may differ from the actual search result

  • Newark Liberty-Shiraz Airport

    August Lowest Airfares -----
  • Newark Liberty-Shiraz Airport

    September Lowest Airfares -----
  • Newark Liberty-Shiraz Airport

    October Lowest Airfares -----
  • Newark Liberty-Shiraz Airport

    November Lowest Airfares -----
  • Newark Liberty-Shiraz Airport

    December Lowest Airfares -----
  • New York-Shiraz (Iran)
    Estimated Flight Time

    13 Hours 40 Minutes
  • New York-Shiraz (Iran)
    Number of Operating Airlines

    2
  • Other Destinations from:New York

    Newark Liberty-Tehran(Imam Khomeini)
    USD1,009〜
    * Fares vary in accordance to seat availability
  • Other Departures to: Shiraz (Iran)

    * Fares vary in accordance to seat availability
ステータス:
メッセージ1
メッセージ2
メッセージ3
メッセージ4
メッセージ5
メッセージ6
メッセージ7
メッセージ8
メッセージ9
メッセージ10
メッセージ11
メッセージ12
メッセージ13
メッセージ14