行きたい日付からパパッと検索!航空券の最安値が見つかる!

Rach Gia
Rach Gia Airport

Ho Chi Minh City
Tan Son Nhat International Airport

 Tan Son Nhat Airport Rach Gia 

Prices vary with departure date. Click on the calendar to select a departure date.

Departure Date

2021/5
Sun Mon Tue Wed Thu Fri Sat
1------
2------3------4------5------6------7------8------
9------10------11------12------13------14------15------
16------17------18------19------20------21------22------
23------24Search25Search26Search27Search28Search29Search
30Search31Search
Select Return Date   Change Departure Date

Return Date

2021/5
SunMonTueWedThuFriSat
1------
2------3------4------5------6------7------8------
9------10------11------12------13------14------15------
16------17------18------19------20------21------22------
23------24------25------26------27------28------29------
30------31------
  Select Departure Date

Currency:US Dollar Loading Searching Fares Updating Fares

Departure Date
Return Date
Total Fares(Round Trip/Economy)

* Displayed fare(s) may differ from the actual search result

  • Rach Gia-Tan Son Nhat Airport

    May Lowest Airfares -----
  • Rach Gia-Tan Son Nhat Airport

    June Lowest Airfares -----
  • Rach Gia-Tan Son Nhat Airport

    July Lowest Airfares -----
  • Rach Gia-Tan Son Nhat Airport

    August Lowest Airfares -----
  • Rach Gia-Tan Son Nhat Airport

    September Lowest Airfares -----
  • Rach Gia-Ho Chi Minh City
    Estimated Flight Time

    0Hours55Minutes
  • Rach Gia-Ho Chi Minh City
    Number of Operating Airlines

    0
  • Other Destinations from:Rach Gia

    * Fares vary in accordance to seat availability
  • Other Departures to: Ho Chi Minh City

    * Fares vary in accordance to seat availability

Book Budget Flights with skyticket / Cheap Airfares for Flights from
Rach Gia-Tan Son Nhat Airport

ステータス:
メッセージ1
メッセージ2
メッセージ3
メッセージ4
メッセージ5
メッセージ6
メッセージ7
メッセージ8
メッセージ9
メッセージ10
メッセージ11
メッセージ12
メッセージ13
メッセージ14