行きたい日付からパパッと検索!航空券の最安値が見つかる!

Yinchuan
Yinchuan Hedong International Airport

Los Angeles
Los Angeles International Airport

 Los Angeles Airport Hedong 

Prices vary with departure date. Click on the calendar to select a departure date.

Departure Date

2020/1
Sun Mon Tue Wed Thu Fri Sat
1------2------3------4------
5------6------7------8------9------10------11------
12------13------14------15------16------17------18------
19------20------21------22------23------24------25------
26------27------28------2980430Search31Search
Select Return Date   Change Departure Date

Return Date

2020/1
SunMonTueWedThuFriSat
1------2------3------4------
5------6------7------8------9------10------11------
12------13------14------15------16------17------18------
19------20------21------22------23------24------25------
26------27------28------29------30------31------
  Select Departure Date

Currency:US Dollar Loading Searching Fares Updating Fares

Departure Date
Return Date
Total Fares(Round Trip/Economy)

* Displayed fare(s) may differ from the actual search result

  • Yinchuan-Los Angeles
    Estimated Flight Time

    13Hours55Minutes
  • Yinchuan-Los Angeles
    Number of Operating Airlines

    9

Lowest airfares to America and Europe from skyticket!

From low cost carriers (LCCs) to major airlines - find budget airfares on skyticket!

Savor mouthwatering cuisines, see panaromic views, enjoy your holiday at most with the lowest airfares from skyticket!

Find the best deals for air tickets on skyticket!

Easy reservation on skyticket for budgeted airfares!

Cheapest airfares from skyticket for family tours!

Solo travelers! The best airfares are available here on skyticket!

Easy reservation on skyticket! Fly on the lowest airfares available!

Easy reservation! Get the best deals on cheap air tickets!

Cheapest airfares from skyticket for flight route Yinchuan to Los Angeles!

Book Budget Flights with skyticket / Cheap Airfares for Flights from
Hedong-Los Angeles Airport

ステータス:
メッセージ1
メッセージ2
メッセージ3
メッセージ4
メッセージ5
メッセージ6
メッセージ7
メッセージ8
メッセージ9
メッセージ10
メッセージ11
メッセージ12
メッセージ13
メッセージ14