行きたい日付からパパッと検索!航空券の最安値が見つかる!

Abbotsford
Abbotsford International Airport

Yellowknife
Yellowknife Airport

 Yellowknife Airport Abbotsford 

Prices vary with departure date. Click on the calendar to select a departure date.

Departure Date

2020/11
Sun Mon Tue Wed Thu Fri Sat
1------2------3------4------5------6------7------
8------9------10------11------12------13------14------
15------16------17------18------19------20------21------
22------23------24------25------26------2745828606
2942330449
Select Return Date   Change Departure Date

Return Date

2020/11
SunMonTueWedThuFriSat
1------2------3------4------5------6------7------
8------9------10------11------12------13------14------
15------16------17------18------19------20------21------
22------23------24------25------26------27------28------
29------30------
  Select Departure Date

Currency:US Dollar Loading Searching Fares Updating Fares

Departure Date
Return Date
Total Fares(Round Trip/Economy)

* Displayed fare(s) may differ from the actual search result

  • Abbotsford-Yellowknife
    Estimated Flight Time

    4Hours20Minutes
  • Abbotsford-Yellowknife
    Number of Operating Airlines

    2
  • Other Destinations from:Abbotsford

    * Fares vary in accordance to seat availability
  • Other Departures to: Yellowknife

    * Fares vary in accordance to seat availability

Traval the world with the lowest airfares from skyticket!

Cheap and reasonable air tickets from skyticket!

Great deals for overseas travels with the cheap air tickets from skyticket!

Get the best deals! Cheap air tickets on skyticket!

Air tickets between Abbotsford and Yellowknifeare cheap and reasonable on skyticket!

Reserve your cheap air tickets on skyticket!

Buy air tickets on skyticket and travel worldwide!

Book the cheapest air tickets on skyticket to travel from Abbotsford to Yellowknife.

Easy reservation for the cheapest air tickets on skyticket!

Use skyticket for easy reservation and reasonable fares.

Book Budget Flights with skyticket / Cheap Airfares for Flights from
Abbotsford-Yellowknife Airport

ステータス:
メッセージ1
メッセージ2
メッセージ3
メッセージ4
メッセージ5
メッセージ6
メッセージ7
メッセージ8
メッセージ9
メッセージ10
メッセージ11
メッセージ12
メッセージ13
メッセージ14