行きたい日付からパパッと検索!航空券の最安値が見つかる!

Akita
Akita Airport

Seoul
Gimpo International Airport

 Gimpo Airport Akita 

Prices vary with departure date. Click on the calendar to select a departure date.

Departure Date

2019/9
Sun Mon Tue Wed Thu Fri Sat
1------2------3------4------5------6------7------
8------9------10------11------12------13------14------
15------16------17------18------19------20------21------
22------23------24------25449264992744928459
2950630477
Select Return Date   Change Departure Date

Return Date

2019/9
SunMonTueWedThuFriSat
1------2------3------4------5------6------7------
8------9------10------11------12------13------14------
15------16------17------18------19------20------21------
22------23------24------25------26------27------28------
29------30------
  Select Departure Date

Currency:US Dollar Loading Searching Fares Updating Fares

Departure Date
Return Date
Total Fares(Round Trip/Economy)

* Displayed fare(s) may differ from the actual search result

  • Akita-Seoul
    Estimated Flight Time

    3Hours30Minutes
  • Akita-Seoul
    Number of Operating Airlines

    4

Top Routes for ladies' group travels from Akita to Seoul!!

Get great deals on the lowest airfares from skyticket!

Travel overseas to enjoy tempting gourmet with the cheapest airfares from skyticket!

Best round trip deals! Book cheap air tickets on skyticket!

The cheapest air tickets from skyticket to fly to Asia for scrumptious Asian gourmet!

Cheapest airfares for overseas trips on skyticket!

skyticket for easy and convenient reservation of cheap tickets!

Students Specials! Get your cheap air tickets from skyticket!

Budget travelers! Book cheap air tickets on skyticket!

Search flights from any countries worldwide on skyticket!

Book Budget Flights with skyticket / Cheap Airfares for Flights from
Akita-Gimpo Airport

ステータス:
メッセージ1
メッセージ2
メッセージ3
メッセージ4
メッセージ5
メッセージ6
メッセージ7
メッセージ8
メッセージ9
メッセージ10
メッセージ11
メッセージ12
メッセージ13
メッセージ14