行きたい日付からパパッと検索!航空券の最安値が見つかる!

Denpasar (Bali)
Ngurah Rai International Airport

Perth
Perth Airport

 Perth Airport Ngurah Rai 

Prices vary with departure date. Click on the calendar to select a departure date.

Departure Date

2020/1
Sun Mon Tue Wed Thu Fri Sat
1------2------3------4------
5------6------7------8------9------10------11------
12------13------14------15------16------17------18------
19------20------21------22------23Search2499725856
268472796728861297773080631831
Select Return Date   Change Departure Date

Return Date

2020/1
SunMonTueWedThuFriSat
1------2------3------4------
5------6------7------8------9------10------11------
12------13------14------15------16------17------18------
19------20------21------22------23------24------25------
26------27------28------29------30------31------
  Select Departure Date

Currency:US Dollar Loading Searching Fares Updating Fares

Departure Date
Return Date
Total Fares(Round Trip/Economy)

* Displayed fare(s) may differ from the actual search result

  • Denpasar (Bali)-Perth
    Estimated Flight Time

    3Hours40Minutes
  • Denpasar (Bali)-Perth
    Number of Operating Airlines

    17

Savor mouthwatering cuisines, see panaromic views, enjoy your holiday at most with the lowest airfares from skyticket!

Best deals on air tickets to popular resorts overseas!

Make your holiday a memorable one with budgeted and low airfares from skyticket!

Easy reservation! Get the best deals on cheap air tickets!

Cheap and reasonable air tickets from skyticket!

Travel overseas with affordable air tickets on popular airlines!

Travel to any destination using skyticket's easy booking platform!

Easy reservation with skyticket! Recommended low airfare searches!

Use skyticket for budget holiday.

From low cost carriers (LCCs) to major airlines - find the cheapest air tickets on skyticket!

Book Budget Flights with skyticket / Cheap Airfares for Flights from
Ngurah Rai-Perth Airport

ステータス:
メッセージ1
メッセージ2
メッセージ3
メッセージ4
メッセージ5
メッセージ6
メッセージ7
メッセージ8
メッセージ9
メッセージ10
メッセージ11
メッセージ12
メッセージ13
メッセージ14