行きたい日付からパパッと検索!航空券の最安値が見つかる!

Beijing
Beijing Capital International Airport

Seoul
Incheon International Airport

 Incheon Airport Capital 

Prices vary with departure date. Click on the calendar to select a departure date.

Departure Date

2020/9
Sun Mon Tue Wed Thu Fri Sat
1------2------3------4------5------
6------7------8------9------10------11------12------
13------14------15------16------17------18------19------
20------21------22------23------24------25------26------
27------28------2938530426
Select Return Date   Change Departure Date

Return Date

2020/9
SunMonTueWedThuFriSat
1------2------3------4------5------
6------7------8------9------10------11------12------
13------14------15------16------17------18------19------
20------21------22------23------24------25------26------
27------28------29------30------
  Select Departure Date

Currency:US Dollar Loading Searching Fares Updating Fares

Departure Date
Return Date
Total Fares(Round Trip/Economy)

* Displayed fare(s) may differ from the actual search result

  • Beijing-Seoul
    Estimated Flight Time

    1Hours55Minutes
  • Beijing-Seoul
    Number of Operating Airlines

    26

Top Routes for ladies' group travels from Beijing to Seoul!!

Search and book your flights on skyticket's hassle-free platform!

Enjoy panoramic views of popular sites worldwide with the cheapest air tickets available from skyticket!

Travel overseas to enjoy tempting gourmet with the cheapest airfares from skyticket!

Find the best deals for air tickets on skyticket!

From low cost carriers (LCCs) to major airlines - find your suitable air tickets on skyticket.

Airfares from Beijing to Seoul vary daily!

The cheapest air tickets from skyticket to fly to Asia for scrumptious Asian gourmet!

Online reservation available 24-hours a day from skyticket! Search and book your flights to Incheon International Airport now!

Book Budget Flights with skyticket / Cheap Airfares for Flights from
Capital-Incheon Airport

ステータス:
メッセージ1
メッセージ2
メッセージ3
メッセージ4
メッセージ5
メッセージ6
メッセージ7
メッセージ8
メッセージ9
メッセージ10
メッセージ11
メッセージ12
メッセージ13
メッセージ14