行きたい日付からパパッと検索!航空券の最安値が見つかる!

Beijing
Beijing Capital International Airport

Lhasa
Lhasa Gonggar Airport

 Lhasa Gonggar Airport Capital 

Prices vary with departure date. Click on the calendar to select a departure date.

Departure Date

2019/11
Sun Mon Tue Wed Thu Fri Sat
1------2------
3------4------5------6------7------8------9------
10------11------12------13------14------15------16------
17------18------19------20------2194622Search23Search
24Search2593226Search279242892329Search30Search
Select Return Date   Change Departure Date

Return Date

2019/11
SunMonTueWedThuFriSat
1------2------
3------4------5------6------7------8------9------
10------11------12------13------14------15------16------
17------18------19------20------21------22------23------
24------25------26------27------28------29------30------
  Select Departure Date

Currency:US Dollar Loading Searching Fares Updating Fares

Departure Date
Return Date
Total Fares(Round Trip/Economy)

* Displayed fare(s) may differ from the actual search result

  • Beijing-Lhasa
    Estimated Flight Time

    5Hours45Minutes
  • Beijing-Lhasa
    Number of Operating Airlines

    6

Enjoy your holiday with the cheapest air tickets from skyticket!

Travel overseas with easy reservation! Get the best air tickets on skyticket!

Book air tickets on skyticket and get the best travel deals!

Best deals on air tickets to popular resorts overseas!

Find the best deals for air tickets on skyticket!

Easy reservation with skyticket! Recommended low airfare searches!

Easy bookings on skyticket for budget travels!

Easy reservation on skyticket for budgeted airfares!

Enjoy panoramic views of popular sites worldwide with the cheapest air tickets available from skyticket!

Book Budget Flights with skyticket / Cheap Airfares for Flights from
Capital-Lhasa Gonggar Airport

ステータス:
メッセージ1
メッセージ2
メッセージ3
メッセージ4
メッセージ5
メッセージ6
メッセージ7
メッセージ8
メッセージ9
メッセージ10
メッセージ11
メッセージ12
メッセージ13
メッセージ14