行きたい日付からパパッと検索!航空券の最安値が見つかる!

Beijing
Beijing Capital International Airport

Las Vegas
McCarran International Airport

 McCarran Airport Capital 

Prices vary with departure date. Click on the calendar to select a departure date.

Departure Date

2020/1
Sun Mon Tue Wed Thu Fri Sat
1------2------3------4------
5------6------7------8------9------10------11------
12------13------14------15------16------17------18------
19------20------21------22------23------2469825Search
26Search271,25828Search29Search30Search31Search
Select Return Date   Change Departure Date

Return Date

2020/1
SunMonTueWedThuFriSat
1------2------3------4------
5------6------7------8------9------10------11------
12------13------14------15------16------17------18------
19------20------21------22------23------24------25------
26------27------28------29------30------31------
  Select Departure Date

Currency:US Dollar Loading Searching Fares Updating Fares

Departure Date
Return Date
Total Fares(Round Trip/Economy)

* Displayed fare(s) may differ from the actual search result

  • Beijing-Las Vegas
    Estimated Flight Time

    12Hours59Minutes
  • Beijing-Las Vegas
    Number of Operating Airlines

    16

Easy reservation on skyticket for budgeted airfares!

Easy reservation! Get the best deals on cheap air tickets!

Best round trip deals! Book cheap air tickets on skyticket!

Easy reservation for flights to Las Vegas without being a member! Search cheap airfares from multiple airlines.

Look no further! skyticket is where you can get the best deals on air tickets!

Get great deals on the lowest airfares from skyticket!

Great deals for overseas travels with the cheap air tickets from skyticket!

Get the best deals! Cheap air tickets on skyticket!

Travel overseas with easy reservation! Get the best air tickets on skyticket!

From low cost carriers (LCCs) to major airlines - find the cheapest air tickets on skyticket!

Book Budget Flights with skyticket / Cheap Airfares for Flights from
Capital-McCarran Airport

ステータス:
メッセージ1
メッセージ2
メッセージ3
メッセージ4
メッセージ5
メッセージ6
メッセージ7
メッセージ8
メッセージ9
メッセージ10
メッセージ11
メッセージ12
メッセージ13
メッセージ14