行きたい日付からパパッと検索!航空券の最安値が見つかる!

Brisbane
Brisbane Airport

Sydney
Sydney Airport

 Sydney Airport Brisbane 

Prices vary with departure date. Click on the calendar to select a departure date.

Departure Date

2019/6
Sun Mon Tue Wed Thu Fri Sat
1------
2------3------4------5------6------7------8------
9------10------11------12------13------14------15------
16------17------18------19------20------21------22------
23------24------25------26------277642875629750
30756
Select Return Date   Change Departure Date

Return Date

2019/6
SunMonTueWedThuFriSat
1------
2------3------4------5------6------7------8------
9------10------11------12------13------14------15------
16------17------18------19------20------21------22------
23------24------25------26------27------28------29------
30------
  Select Departure Date

Currency:US dollar Loading Searching Fares Updating Fares

Departure Date
Return Date
Total Fares(Round Trip/Economy)

* Displayed fare(s) may differ from the actual search result

  • Brisbane-Sydney
    Estimated Flight Time

    1Hours35Minutes
  • Brisbane-Sydney
    Number of Operating Airlines

    3

Enjoy breathtaking views of travel spots with easy reservation on skyticket!

Best travel deals! Cheapest air tickets from skyticket to Oceania and Europe!

See the cutest animals worldwide with budgeted airfares from skyticket!!

Easy reservation with skyticket! Recommended low airfare searches!

Search for the best airfares on skyticket!

Online reservation available 24-hours a day from skyticket! Search and book your flights to Sydney Airport now!

Use skyticket for easy reservation and reasonable fares.

Great deals for overseas travels with the cheap air tickets from skyticket!

Easy reservation on skyticket for budgeted airfares!

Book Budget Flights with skyticket / Cheap Airfares for Flights from
Brisbane-Sydney Airport

ステータス:
メッセージ1
メッセージ2
メッセージ3
メッセージ4
メッセージ5
メッセージ6
メッセージ7
メッセージ8
メッセージ9
メッセージ10
メッセージ11
メッセージ12
メッセージ13
メッセージ14