行きたい日付からパパッと検索!航空券の最安値が見つかる!

Cairns
Cairns Airport

Sydney
Sydney Airport

 Sydney Airport Cairns 

Prices vary with departure date. Click on the calendar to select a departure date.

Departure Date

2020/1
Sun Mon Tue Wed Thu Fri Sat
1------2------3------4------
5------6------7------8------9------10------11------
12------13------14------15------16------17------18------
19------20------21------22------23------24------25------
26------27------28------29Search3033331272
Select Return Date   Change Departure Date

Return Date

2020/1
SunMonTueWedThuFriSat
1------2------3------4------
5------6------7------8------9------10------11------
12------13------14------15------16------17------18------
19------20------21------22------23------24------25------
26------27------28------29------30------31------
  Select Departure Date

Currency:US Dollar Loading Searching Fares Updating Fares

Departure Date
Return Date
Total Fares(Round Trip/Economy)

* Displayed fare(s) may differ from the actual search result

  • Cairns-Sydney
    Estimated Flight Time

    2Hours55Minutes
  • Cairns-Sydney
    Number of Operating Airlines

    4

Enjoy breathtaking views of travel spots with easy reservation on skyticket!

Best travel deals! Cheapest air tickets from skyticket to Oceania and Europe!

See the cutest animals worldwide with budgeted airfares from skyticket!!

Online reservation available 24-hours a day from skyticket! Search and book your flights to Sydney Airport now!

Travel worldwide to anywhere in Europe, Asia or America with the best airfares! Search now on skyticket!

Enjoy panoramic views of popular sites worldwide with the cheapest air tickets available from skyticket!

Travel overseas with easy reservation! Get the best air tickets on skyticket!

Easy reservation for the cheapest air tickets on skyticket!

Budget air tickets for direct flights and transit or stopover flights, all available on skyticket!

From low cost carriers (LCCs) to major airlines - find budget airfares on skyticket!

Book Budget Flights with skyticket / Cheap Airfares for Flights from
Cairns-Sydney Airport

ステータス:
メッセージ1
メッセージ2
メッセージ3
メッセージ4
メッセージ5
メッセージ6
メッセージ7
メッセージ8
メッセージ9
メッセージ10
メッセージ11
メッセージ12
メッセージ13
メッセージ14