行きたい日付からパパッと検索!航空券の最安値が見つかる!

Calgary
Calgary International Airport

Seoul
Incheon International Airport

 Incheon Airport Calgary 

Prices vary with departure date. Click on the calendar to select a departure date.

Departure Date

2019/6
Sun Mon Tue Wed Thu Fri Sat
1------
2------3------4------5------6------7------8------
9------10------11------12------13------14------15------
16------17------18------19------20------21------22------
23------24------25------26------271,377281,484291,415
301,335
Select Return Date   Change Departure Date

Return Date

2019/6
SunMonTueWedThuFriSat
1------
2------3------4------5------6------7------8------
9------10------11------12------13------14------15------
16------17------18------19------20------21------22------
23------24------25------26------27------28------29------
30------
  Select Departure Date

Currency:US dollar Loading Searching Fares Updating Fares

Departure Date
Return Date
Total Fares(Round Trip/Economy)

* Displayed fare(s) may differ from the actual search result

  • Calgary-Seoul
    Estimated Flight Time

    12Hours15Minutes
  • Calgary-Seoul
    Number of Operating Airlines

    17

Top Routes for ladies' group travels from Calgary to Seoul!!

Find the best deals for air tickets on skyticket!

Air tickets between Calgary and Seoulare cheap and reasonable on skyticket!

Buy air tickets on skyticket and travel worldwide!

Booking made easy on skyticket for cheap air tickets and budgeted airfares!

The cheapest air tickets from skyticket to fly to Asia for scrumptious Asian gourmet!

Flying somewhere? skyticket is where to get the cheapest airfares!

Travel overseas to enjoy tempting gourmet with the cheapest airfares from skyticket!

Savor mouthwatering cuisines, see panaromic views, enjoy your holiday at most with the lowest airfares from skyticket!

Get great deals on the lowest airfares from skyticket!

Book Budget Flights with skyticket / Cheap Airfares for Flights from
Calgary-Incheon Airport

ステータス:
メッセージ1
メッセージ2
メッセージ3
メッセージ4
メッセージ5
メッセージ6
メッセージ7
メッセージ8
メッセージ9
メッセージ10
メッセージ11
メッセージ12
メッセージ13
メッセージ14