行きたい日付からパパッと検索!航空券の最安値が見つかる!

Chicago
O'Hare International Airport

Hiroshima
Hiroshima Airport

 Hiroshima Airport O'Hare 

Prices vary with departure date. Click on the calendar to select a departure date.

Departure Date

2020/1
Sun Mon Tue Wed Thu Fri Sat
1------2------3------4------
5------6------7------8------9------10------11------
12------13------14------15------16------17------18------
19------20------21------22------23------24------25------
26------27------28------29------30Search311,211
Select Return Date   Change Departure Date

Return Date

2020/1
SunMonTueWedThuFriSat
1------2------3------4------
5------6------7------8------9------10------11------
12------13------14------15------16------17------18------
19------20------21------22------23------24------25------
26------27------28------29------30------31------
  Select Departure Date

Currency:US Dollar Loading Searching Fares Updating Fares

Departure Date
Return Date
Total Fares(Round Trip/Economy)

* Displayed fare(s) may differ from the actual search result

  • O'Hare-Hiroshima Airport

    January Lowest Airfares

    USD1,211


    The airfare displayed above is for United Airlines


    Set calendar for this month
  • O'Hare-Hiroshima Airport

    February Lowest Airfares

    USD709


    The airfare displayed above is for United Airlines


    Set calendar for this month
  • Chicago-Hiroshima
    Estimated Flight Time

    14Hours25Minutes
  • Chicago-Hiroshima
    Number of Operating Airlines

    6

Easy bookings on skyticket for budget travels!

Travel overseas on a budget! Get the best travel deals on skyticket!

Search for the best airfares on skyticket!

Find the best deals for air tickets on skyticket!

Search for popular airline tickets on skyticket!

Easy reservation and cheapest tickets! Get the best travel deals on skyticket!

Reserve your air tickets now to get the best deals on skyticket!

Enjoy panoramic views of popular sites worldwide with the cheapest air tickets available from skyticket!

Travel to any destination using skyticket's easy booking platform!

Flying somewhere? skyticket is where to get the cheapest airfares!

Book Budget Flights with skyticket / Cheap Airfares for Flights from
O'Hare-Hiroshima Airport

ステータス:
メッセージ1
メッセージ2
メッセージ3
メッセージ4
メッセージ5
メッセージ6
メッセージ7
メッセージ8
メッセージ9
メッセージ10
メッセージ11
メッセージ12
メッセージ13
メッセージ14