行きたい日付からパパッと検索!航空券の最安値が見つかる!

Chongqing
Chongqing Jiangbei International Airport

Taipei
Taoyuan International Airport

 Taoyuan Airport Jiangbei 

Prices vary with departure date. Click on the calendar to select a departure date.

Departure Date

2020/1
Sun Mon Tue Wed Thu Fri Sat
1------2------3------4------
5------6------7------8------9------10------11------
12------13------14------15------16------17------18------
19------20------21------22------23------2435025327
263212732728329293633039531323
Select Return Date   Change Departure Date

Return Date

2020/1
SunMonTueWedThuFriSat
1------2------3------4------
5------6------7------8------9------10------11------
12------13------14------15------16------17------18------
19------20------21------22------23------24------25------
26------27------28------29------30------31------
  Select Departure Date

Currency:US Dollar Loading Searching Fares Updating Fares

Departure Date
Return Date
Total Fares(Round Trip/Economy)

* Displayed fare(s) may differ from the actual search result

  • Chongqing-Taipei
    Estimated Flight Time

    4Hours00Minutes
  • Chongqing-Taipei
    Number of Operating Airlines

    16

Enjoy breathtaking views of travel spots with easy reservation on skyticket!

Traval the world with the lowest airfares from skyticket!

Solo travelers! The best airfares are available here on skyticket!

skyticket for easy and convenient reservation of cheap tickets!

Early bird low airfares from Chongqing to Taipei!

Search and reserve cheap air tickets on skyticket

Get great deals on the lowest airfares from skyticket!

From Economy class to the luxurious First class, book now with skyticket for the Best Airfares!

Fly worldwide with skyticket for amazing travel deals!

Couple Travels! Get the lowest air tickets from skyticket!

Book Budget Flights with skyticket / Cheap Airfares for Flights from
Jiangbei-Taoyuan Airport

ステータス:
メッセージ1
メッセージ2
メッセージ3
メッセージ4
メッセージ5
メッセージ6
メッセージ7
メッセージ8
メッセージ9
メッセージ10
メッセージ11
メッセージ12
メッセージ13
メッセージ14