行きたい日付からパパッと検索!航空券の最安値が見つかる!

Chongqing
Chongqing Jiangbei International Airport

Los Angeles
Los Angeles International Airport

 Los Angeles Airport Jiangbei 

Prices vary with departure date. Click on the calendar to select a departure date.

Departure Date

2020/1
Sun Mon Tue Wed Thu Fri Sat
1------2------3------4------
5------6------7------8------9------10------11------
12------13------14------15------16------17------18------
19------20------21------22------23------24------25------
26------27------28------29------3052831Search
Select Return Date   Change Departure Date

Return Date

2020/1
SunMonTueWedThuFriSat
1------2------3------4------
5------6------7------8------9------10------11------
12------13------14------15------16------17------18------
19------20------21------22------23------24------25------
26------27------28------29------30------31------
  Select Departure Date

Currency:US Dollar Loading Searching Fares Updating Fares

Departure Date
Return Date
Total Fares(Round Trip/Economy)

* Displayed fare(s) may differ from the actual search result

  • Chongqing-Los Angeles
    Estimated Flight Time

    12Hours25Minutes
  • Chongqing-Los Angeles
    Number of Operating Airlines

    15

Lowest airfares to America and Europe from skyticket!

Easy reservation for the cheapest air tickets on skyticket!

Cheapest airfares for overseas trips on skyticket!

Get the lowest airfares for routes from Chongqing toLos Angeles!

Easy bookings on skyticket for budget travels!

Get great deals on cheap air tickets between Chongqing and Los Angeles!

Reserve your cheap air tickets on skyticket!

Great deals for budgeted airfares from Chongqing to Los Angeles on skyticket!

Make your holiday a memorable one with budgeted and low airfares from skyticket!

Solo travelers! The best airfares are available here on skyticket!

Book Budget Flights with skyticket / Cheap Airfares for Flights from
Jiangbei-Los Angeles Airport

ステータス:
メッセージ1
メッセージ2
メッセージ3
メッセージ4
メッセージ5
メッセージ6
メッセージ7
メッセージ8
メッセージ9
メッセージ10
メッセージ11
メッセージ12
メッセージ13
メッセージ14