行きたい日付からパパッと検索!航空券の最安値が見つかる!

Nagoya
Chubu Centrair International Airport

Seoul
Gimpo International Airport

 Gimpo Airport Chubu Centrair 

Prices vary with departure date. Click on the calendar to select a departure date.

Departure Date

2020/1
Sun Mon Tue Wed Thu Fri Sat
1------2------3------4------
5------6------7------8------9------10------11------
12------13------14------15------16------17------18------
19------20------21------22------23------2444525351
262952748728228293153031031326
Select Return Date   Change Departure Date

Return Date

2020/1
SunMonTueWedThuFriSat
1------2------3------4------
5------6------7------8------9------10------11------
12------13------14------15------16------17------18------
19------20------21------22------23------24------25------
26------27------28------29------30------31------
  Select Departure Date

Currency:US Dollar Loading Searching Fares Updating Fares

Departure Date
Return Date
Total Fares(Round Trip/Economy)

* Displayed fare(s) may differ from the actual search result

  • Nagoya-Seoul
    Estimated Flight Time

    2Hours05Minutes
  • Nagoya-Seoul
    Number of Operating Airlines

    10

Top Routes for ladies' group travels from Nagoya to Seoul!!

Students Specials! Get your cheap air tickets from skyticket!

Booking made easy on skyticket for cheap air tickets and budgeted airfares!

Travel overseas to enjoy tempting gourmet with the cheapest airfares from skyticket!

Search for cheapest air tickets between Nagoya and Seoul on skyticket!

The cheapest air tickets from skyticket to fly to Asia for scrumptious Asian gourmet!

Budget air tickets for direct flights and transit or stopover flights, all available on skyticket!

Easy reservation for flights to Seoul without being a member! Search cheap airfares from multiple airlines.

Fast and easy booking for cheap air tickets!

Cheap air tickets from Nagoya to Seoul on skyticket!

Book Budget Flights with skyticket / Cheap Airfares for Flights from
Chubu Centrair-Gimpo Airport

ステータス:
メッセージ1
メッセージ2
メッセージ3
メッセージ4
メッセージ5
メッセージ6
メッセージ7
メッセージ8
メッセージ9
メッセージ10
メッセージ11
メッセージ12
メッセージ13
メッセージ14