行きたい日付からパパッと検索!航空券の最安値が見つかる!

Nagoya
Chubu Centrair International Airport

Daegu
Daegu International Airport

 Daegu Airport Chubu Centrair 

Prices vary with departure date. Click on the calendar to select a departure date.

Departure Date

2020/1
Sun Mon Tue Wed Thu Fri Sat
1------2------3------4------
5------6------7------8------9------10------11------
12------13------14------15------16------17------18------
19------20------21------22------23------2436225362
264342749828367293873032631398
Select Return Date   Change Departure Date

Return Date

2020/1
SunMonTueWedThuFriSat
1------2------3------4------
5------6------7------8------9------10------11------
12------13------14------15------16------17------18------
19------20------21------22------23------24------25------
26------27------28------29------30------31------
  Select Departure Date

Currency:US Dollar Loading Searching Fares Updating Fares

Departure Date
Return Date
Total Fares(Round Trip/Economy)

* Displayed fare(s) may differ from the actual search result

  • Nagoya-Daegu
    Estimated Flight Time

    3Hours10Minutes
  • Nagoya-Daegu
    Number of Operating Airlines

    12

skyticket for easy and convenient reservation of cheap tickets!

Cheap and reasonable air tickets from skyticket!

Enjoy your holiday with the cheapest air tickets from skyticket!

Search for the best airfares on skyticket!

Make your holiday a memorable one with budgeted and low airfares from skyticket!

Cheapest airfares from skyticket for family tours!

Best deals on air tickets to popular resorts overseas!

Easy reservation and cheapest tickets! Get the best travel deals on skyticket!

Best round trip deals! Book cheap air tickets on skyticket!

Book the cheapest air tickets on skyticket to travel from Nagoya to Daegu.

Book Budget Flights with skyticket / Cheap Airfares for Flights from
Chubu Centrair-Daegu Airport

ステータス:
メッセージ1
メッセージ2
メッセージ3
メッセージ4
メッセージ5
メッセージ6
メッセージ7
メッセージ8
メッセージ9
メッセージ10
メッセージ11
メッセージ12
メッセージ13
メッセージ14