行きたい日付からパパッと検索!航空券の最安値が見つかる!

Guanajuato
Del Bajio International Airport

Tijuana
Tijuana International Airport

 Tijuana Airport Del Bajio 

Prices vary with departure date. Click on the calendar to select a departure date.

Departure Date

2019/7
Sun Mon Tue Wed Thu Fri Sat
1------2------3------4------5------6------
7------8------9------10------11------12------13------
14------15------16------17------18------19------20------
21------22------23------24------25Search26Search27592
28Search29Search30Search31549
Select Return Date   Change Departure Date

Return Date

2019/7
SunMonTueWedThuFriSat
1------2------3------4------5------6------
7------8------9------10------11------12------13------
14------15------16------17------18------19------20------
21------22------23------24------25------26------27------
28------29------30------31------
  Select Departure Date

Currency:US dollar Loading Searching Fares Updating Fares

Departure Date
Return Date
Total Fares(Round Trip/Economy)

* Displayed fare(s) may differ from the actual search result

  • Guanajuato-Tijuana
    Estimated Flight Time

    3Hours05Minutes
  • Guanajuato-Tijuana
    Number of Operating Airlines

    2

Search and reserve cheap air tickets on skyticket

Make your reservation on skyticket in only 3 minutes!

Air tickets between Guanajuato and Tijuanaare cheap and reasonable on skyticket!

Make your holiday a memorable one with budgeted and low airfares from skyticket!

Travel to any destination using skyticket's easy booking platform!

Search and book your flights on skyticket's hassle-free platform!

Travel overseas with skyticket's budgeted airfares!

Look no further! skyticket is where you can get the best deals on air tickets!

Easy reservation and cheapest tickets! Get the best travel deals on skyticket!

Easy reservation for the cheapest air tickets on skyticket!

Book Budget Flights with skyticket / Cheap Airfares for Flights from
Del Bajio-Tijuana Airport

ステータス:
メッセージ1
メッセージ2
メッセージ3
メッセージ4
メッセージ5
メッセージ6
メッセージ7
メッセージ8
メッセージ9
メッセージ10
メッセージ11
メッセージ12
メッセージ13
メッセージ14