行きたい日付からパパッと検索!航空券の最安値が見つかる!

Urumqi
Urumqi Diwopu International Airport

Osaka
Kansai International Airport

 Kansai Airport Diwopu 

Prices vary with departure date. Click on the calendar to select a departure date.

Departure Date

2019/9
Sun Mon Tue Wed Thu Fri Sat
1------2------3------4------5------6------7------
8------9------10------11------12------13------14------
15------16------17------18------19------20------21------
22------23------24------25------26------27------281,637
291,63730Search
Select Return Date   Change Departure Date

Return Date

2019/9
SunMonTueWedThuFriSat
1------2------3------4------5------6------7------
8------9------10------11------12------13------14------
15------16------17------18------19------20------21------
22------23------24------25------26------27------28------
29------30------
  Select Departure Date

Currency:US Dollar Loading Searching Fares Updating Fares

Departure Date
Return Date
Total Fares(Round Trip/Economy)

* Displayed fare(s) may differ from the actual search result

  • Urumqi-Osaka
    Estimated Flight Time

    6Hours35Minutes
  • Urumqi-Osaka
    Number of Operating Airlines

    11

Travel overseas with skyticket's budgeted airfares!

Cheapest airfares from skyticket for flight route Urumqi to Osaka!

Search and reserve cheap air tickets on skyticket

Search for the best airfares on skyticket!

Get great deals on cheap air tickets between Urumqi and Osaka!

Book the cheapest air tickets on skyticket to travel from Urumqi to Osaka.

Make your reservation on skyticket in only 3 minutes!

Find the best deals for air tickets on skyticket!

Buy cheap air tickets on skyticket and travel the world!

Book Budget Flights with skyticket / Cheap Airfares for Flights from
Diwopu-Kansai Airport

ステータス:
メッセージ1
メッセージ2
メッセージ3
メッセージ4
メッセージ5
メッセージ6
メッセージ7
メッセージ8
メッセージ9
メッセージ10
メッセージ11
メッセージ12
メッセージ13
メッセージ14