行きたい日付からパパッと検索!航空券の最安値が見つかる!

Nukuʻalofa
Fuaʻamotu International Airport

Port Vila
Bauerfield International Airport

 Bauerfield Airport Fuaʻamotu 

Prices vary with departure date. Click on the calendar to select a departure date.

Departure Date

2021/1
Sun Mon Tue Wed Thu Fri Sat
1------2------
3------4------5------6------7------8------9------
10------11------12------13------14------15------16------
17------18------19------20------21------22------23------
24------25------26------27------28------29------30------
31Search
Select Return Date   Change Departure Date

Return Date

2021/1
SunMonTueWedThuFriSat
1------2------
3------4------5------6------7------8------9------
10------11------12------13------14------15------16------
17------18------19------20------21------22------23------
24------25------26------27------28------29------30------
31------
  Select Departure Date

Currency:US Dollar Loading Searching Fares Updating Fares

Departure Date
Return Date
Total Fares(Round Trip/Economy)

* Displayed fare(s) may differ from the actual search result

  • Fuaʻamotu-Bauerfield Airport

    January Lowest Airfares -----
  • Fuaʻamotu-Bauerfield Airport

    February Lowest Airfares -----
  • Fuaʻamotu-Bauerfield Airport

    March Lowest Airfares -----
  • Fuaʻamotu-Bauerfield Airport

    April Lowest Airfares -----
  • Fuaʻamotu-Bauerfield Airport

    May Lowest Airfares -----
  • Nukuʻalofa-Port Vila
    Estimated Flight Time

    4Hours55Minutes
  • Nukuʻalofa-Port Vila
    Number of Operating Airlines

    0
  • Other Destinations from:Nukuʻalofa

    * Fares vary in accordance to seat availability
  • Other Departures to: Port Vila

    * Fares vary in accordance to seat availability

Book Budget Flights with skyticket / Cheap Airfares for Flights from
Fuaʻamotu-Bauerfield Airport

ステータス:
メッセージ1
メッセージ2
メッセージ3
メッセージ4
メッセージ5
メッセージ6
メッセージ7
メッセージ8
メッセージ9
メッセージ10
メッセージ11
メッセージ12
メッセージ13
メッセージ14