行きたい日付からパパッと検索!航空券の最安値が見つかる!

Fukushima
Fukushima Airport

Seoul
Incheon International Airport

 Incheon Airport Fukushima 

Prices vary with departure date. Click on the calendar to select a departure date.

Departure Date

2019/10
Sun Mon Tue Wed Thu Fri Sat
1------2------3------4------5------
6------7------8------9------10------11------12------
13------14------15------16------17------18------19------
20------21------22------23------24------25------26804
2783128862298623086231871
Select Return Date   Change Departure Date

Return Date

2019/10
SunMonTueWedThuFriSat
1------2------3------4------5------
6------7------8------9------10------11------12------
13------14------15------16------17------18------19------
20------21------22------23------24------25------26------
27------28------29------30------31------
  Select Departure Date

Currency:US Dollar Loading Searching Fares Updating Fares

Departure Date
Return Date
Total Fares(Round Trip/Economy)

* Displayed fare(s) may differ from the actual search result

  • Fukushima-Seoul
    Estimated Flight Time

    3Hours00Minutes
  • Fukushima-Seoul
    Number of Operating Airlines

    5

Top Routes for ladies' group travels from Fukushima to Seoul!!

Students Specials! Get your cheap air tickets from skyticket!

Search on skyticket for air tickets between Fukushima and Seoul.

Easy reservation for flights to Seoul without being a member! Search cheap airfares from multiple airlines.

The cheapest air tickets from skyticket to fly to Asia for scrumptious Asian gourmet!

Easy reservation for the cheapest air tickets on skyticket!

Early flights and red-eye flights on skyticket.

Great deals for overseas travels with the cheap air tickets from skyticket!

Look for cheap LCC air tickets on skyticket!

Book Budget Flights with skyticket / Cheap Airfares for Flights from
Fukushima-Incheon Airport

ステータス:
メッセージ1
メッセージ2
メッセージ3
メッセージ4
メッセージ5
メッセージ6
メッセージ7
メッセージ8
メッセージ9
メッセージ10
メッセージ11
メッセージ12
メッセージ13
メッセージ14