行きたい日付からパパッと検索!航空券の最安値が見つかる!

Seoul
Gimpo International Airport

Osaka
Kansai International Airport

 Kansai Airport Gimpo 

Prices vary with departure date. Click on the calendar to select a departure date.

Departure Date

2020/11
Sun Mon Tue Wed Thu Fri Sat
1------2------3------4------5------6------7------
8------9------10------11------12------13------14------
15------16------17------18------19------20------21------
22------23------24------25------26------2731128335
2931130296
Select Return Date   Change Departure Date

Return Date

2020/11
SunMonTueWedThuFriSat
1------2------3------4------5------6------7------
8------9------10------11------12------13------14------
15------16------17------18------19------20------21------
22------23------24------25------26------27------28------
29------30------
  Select Departure Date

Currency:US Dollar Loading Searching Fares Updating Fares

Departure Date
Return Date
Total Fares(Round Trip/Economy)

* Displayed fare(s) may differ from the actual search result

  • Seoul-Osaka
    Estimated Flight Time

    1Hours40Minutes
  • Seoul-Osaka
    Number of Operating Airlines

    11

Best round trip deals! Book cheap air tickets on skyticket!

Cheapest airfares for overseas trips on skyticket!

Easy reservation with skyticket! Recommended low airfare searches!

Fast and easy booking for cheap air tickets!

Book air tickets on skyticket and get the best travel deals!

Easy reservation! Get the best deals on cheap air tickets!

Travel to any destination using skyticket's easy booking platform!

Early flights and red-eye flights on skyticket.

Travel overseas with skyticket's budgeted airfares!

Travel worldwide to anywhere in Europe, Asia or America with the best airfares! Search now on skyticket!

Book Budget Flights with skyticket / Cheap Airfares for Flights from
Gimpo-Kansai Airport

ステータス:
メッセージ1
メッセージ2
メッセージ3
メッセージ4
メッセージ5
メッセージ6
メッセージ7
メッセージ8
メッセージ9
メッセージ10
メッセージ11
メッセージ12
メッセージ13
メッセージ14