行きたい日付からパパッと検索!航空券の最安値が見つかる!

Gold Coast
Gold Coast Airport

Tokyo
Narita International Airport

 Narita Airport Gold Coast 

Prices vary with departure date. Click on the calendar to select a departure date.

Departure Date

2019/6
Sun Mon Tue Wed Thu Fri Sat
1------
2------3------4------5------6------7------8------
9------10------11------12------13------14------15------
16------17------18------19------20------21------22------
23------24------25------26------271,09428853291,015
30961
Select Return Date   Change Departure Date

Return Date

2019/6
SunMonTueWedThuFriSat
1------
2------3------4------5------6------7------8------
9------10------11------12------13------14------15------
16------17------18------19------20------21------22------
23------24------25------26------27------28------29------
30------
  Select Departure Date

Currency:US dollar Loading Searching Fares Updating Fares

Departure Date
Return Date
Total Fares(Round Trip/Economy)

* Displayed fare(s) may differ from the actual search result

  • Gold Coast-Tokyo
    Estimated Flight Time

    10Hours00Minutes
  • Gold Coast-Tokyo
    Number of Operating Airlines

    7

Make your reservation on skyticket in only 3 minutes!

Great deals for budgeted airfares from Gold Coast to Tokyo on skyticket!

Search and book your flights on skyticket's hassle-free platform!

Search for cheapest air tickets between Gold Coast and Tokyo on skyticket!

Budgeted airfares are up for grabs on skyticket!

Cheap and reasonable airfares for trips abroad! Get the best deals on skyticket!

Cheapest airfares from skyticket for flight route Gold Coast to Tokyo!

Early bird low airfares from Gold Coast to Tokyo!

Travel overseas on a budget! Get the best travel deals on skyticket!

Make your reservation on skyticket in only 3 minutes!

Book Budget Flights with skyticket / Cheap Airfares for Flights from
Gold Coast-Narita Airport

ステータス:
メッセージ1
メッセージ2
メッセージ3
メッセージ4
メッセージ5
メッセージ6
メッセージ7
メッセージ8
メッセージ9
メッセージ10
メッセージ11
メッセージ12
メッセージ13
メッセージ14