行きたい日付からパパッと検索!航空券の最安値が見つかる!

Tokyo
Haneda Airport

Bangkok
Don Mueang International Airport

 Don Mueang Airport Haneda 

Prices vary with departure date. Click on the calendar to select a departure date.

Departure Date

2019/10
Sun Mon Tue Wed Thu Fri Sat
1------2------3------4------5------
6------7------8------9------10------11------12------
13------14------15------16------17------18------19------
20------21------22------23448244572545726449
2745328453294533048731446
Select Return Date   Change Departure Date

Return Date

2019/10
SunMonTueWedThuFriSat
1------2------3------4------5------
6------7------8------9------10------11------12------
13------14------15------16------17------18------19------
20------21------22------23------24------25------26------
27------28------29------30------31------
  Select Departure Date

Currency:US Dollar Loading Searching Fares Updating Fares

Departure Date
Return Date
Total Fares(Round Trip/Economy)

* Displayed fare(s) may differ from the actual search result

  • Tokyo-Bangkok
    Estimated Flight Time

    9Hours40Minutes
  • Tokyo-Bangkok
    Number of Operating Airlines

    7

Best deals on air tickets to popular resorts overseas!

Cheap air tickets from Tokyo to Bangkok on skyticket!

Search and reserve cheap air tickets on skyticket

Cheapest airfares from skyticket for family tours!

Search for the lowest price and the shortest route on skyticket!

Buy cheap air tickets on skyticket and travel the world!

Easy reservation for the cheapest air tickets on skyticket!

Easy reservation with skyticket! Recommended low airfare searches!

Savor mouthwatering cuisines, see panaromic views, enjoy your holiday at most with the lowest airfares from skyticket!

Easy reservation on skyticket! Fly on the lowest airfares available!

Book Budget Flights with skyticket / Cheap Airfares for Flights from
Haneda-Don Mueang Airport

ステータス:
メッセージ1
メッセージ2
メッセージ3
メッセージ4
メッセージ5
メッセージ6
メッセージ7
メッセージ8
メッセージ9
メッセージ10
メッセージ11
メッセージ12
メッセージ13
メッセージ14