行きたい日付からパパッと検索!航空券の最安値が見つかる!

Tokyo
Haneda Airport

Guam
Guam International Airport

 Guam Airport Haneda 

Prices vary with departure date. Click on the calendar to select a departure date.

Departure Date

2019/10
Sun Mon Tue Wed Thu Fri Sat
1------2------3------4------5------
6------7------8------9------10------11------12------
13------14------15------16------17------18------19------
20------21------22------23------24------2553926518
2754628487295233050731487
Select Return Date   Change Departure Date

Return Date

2019/10
SunMonTueWedThuFriSat
1------2------3------4------5------
6------7------8------9------10------11------12------
13------14------15------16------17------18------19------
20------21------22------23------24------25------26------
27------28------29------30------31------
  Select Departure Date

Currency:US Dollar Loading Searching Fares Updating Fares

Departure Date
Return Date
Total Fares(Round Trip/Economy)

* Displayed fare(s) may differ from the actual search result

  • Tokyo-Guam
    Estimated Flight Time

    4Hours35Minutes
  • Tokyo-Guam
    Number of Operating Airlines

    12

Get the Best Deals on skyticket for your school trips!

Get great deals on the lowest airfares from skyticket!

Seniors! Easy reservation on skyticket for trips to popular sightseeing spots!

Couple Travels! Get the lowest air tickets from skyticket!

Easy reservation for flights to Guam without being a member! Search cheap airfares from multiple airlines.

Enjoy trips to popular beach resorts with cheap air tickets!

Great deals for overseas travels with the cheap air tickets from skyticket!

Reserve your air tickets now to get the best deals on skyticket!

Booking made easy on skyticket for cheap air tickets and budgeted airfares!

Travel worldwide to anywhere in Europe, Asia or America with the best airfares! Search now on skyticket!

Book Budget Flights with skyticket / Cheap Airfares for Flights from
Haneda-Guam Airport

ステータス:
メッセージ1
メッセージ2
メッセージ3
メッセージ4
メッセージ5
メッセージ6
メッセージ7
メッセージ8
メッセージ9
メッセージ10
メッセージ11
メッセージ12
メッセージ13
メッセージ14