行きたい日付からパパッと検索!航空券の最安値が見つかる!

Tokyo
Haneda Airport

Seoul
Incheon International Airport

 Incheon Airport Haneda 

Prices vary with departure date. Click on the calendar to select a departure date.

Departure Date

2020/10
Sun Mon Tue Wed Thu Fri Sat
1------2------3------
4------5------6------7------8------9------10------
11------12------13------14------15------16------17------
18------19------20------21------22------23------24------
25------26------27------28------29------30Search31849
Select Return Date   Change Departure Date

Return Date

2020/10
SunMonTueWedThuFriSat
1------2------3------
4------5------6------7------8------9------10------
11------12------13------14------15------16------17------
18------19------20------21------22------23------24------
25------26------27------28------29------30------31------
  Select Departure Date

Currency:US Dollar Loading Searching Fares Updating Fares

Departure Date
Return Date
Total Fares(Round Trip/Economy)

* Displayed fare(s) may differ from the actual search result

  • Tokyo-Seoul
    Estimated Flight Time

    3Hours05Minutes
  • Tokyo-Seoul
    Number of Operating Airlines

    40

Top Routes for ladies' group travels from Tokyo to Seoul!!

The cheapest air tickets from skyticket to fly to Asia for scrumptious Asian gourmet!

Travel overseas to enjoy tempting gourmet with the cheapest airfares from skyticket!

Make your reservation on skyticket in only 3 minutes!

Search for popular airline tickets on skyticket!

From Economy class to the luxurious First class, book now with skyticket for the Best Airfares!

Search skyticket to find the lowest airfares - from LCCs to the most popular airlines!

Search and book your flights on skyticket's hassle-free platform!

Cheap and reasonable air tickets from skyticket!

Travel the world's popular sites with budgeted airfares from skyticket!

Book Budget Flights with skyticket / Cheap Airfares for Flights from
Haneda-Incheon Airport

ステータス:
メッセージ1
メッセージ2
メッセージ3
メッセージ4
メッセージ5
メッセージ6
メッセージ7
メッセージ8
メッセージ9
メッセージ10
メッセージ11
メッセージ12
メッセージ13
メッセージ14