行きたい日付からパパッと検索!航空券の最安値が見つかる!

Tokyo
Haneda Airport

Xiamen
Xiamen Gaoqi International Airport

 Xiamen Gaoqi Airport Haneda 

Prices vary with departure date. Click on the calendar to select a departure date.

Departure Date

2022/9
Sun Mon Tue Wed Thu Fri Sat
1------2------3------
4------5------6------7------8------9------10------
11------12------13------14------15------16------17------
18------19------20------21------22------23------24------
25------26------27------28Search29Search30Search
Select Return Date   Change Departure Date

Return Date

2022/9
SunMonTueWedThuFriSat
1------2------3------
4------5------6------7------8------9------10------
11------12------13------14------15------16------17------
18------19------20------21------22------23------24------
25------26------27------28------29------30------
  Select Departure Date

Currency:US Dollar Loading Searching Fares Updating Fares

Departure Date
Return Date
Total Fares(Round Trip/Economy)

* Displayed fare(s) may differ from the actual search result

  • Haneda-Xiamen Gaoqi Airport

    September Lowest Airfares -----
  • Haneda-Xiamen Gaoqi Airport

    October Lowest Airfares -----
  • Haneda-Xiamen Gaoqi Airport

    November Lowest Airfares -----
  • Haneda-Xiamen Gaoqi Airport

    December Lowest Airfares -----
  • Haneda-Xiamen Gaoqi Airport

    January Lowest Airfares -----
  • Tokyo-Xiamen
    Estimated Flight Time

    6 Hours 00 Minutes
  • Tokyo-Xiamen
    Number of Operating Airlines

    24
  • Other Destinations from:Tokyo

    * Fares vary in accordance to seat availability
  • Other Departures to: Xiamen

    Narita Airport-Xiamen(Gaoqi)
    USD2,601〜
    * Fares vary in accordance to seat availability
ステータス:
メッセージ1
メッセージ2
メッセージ3
メッセージ4
メッセージ5
メッセージ6
メッセージ7
メッセージ8
メッセージ9
メッセージ10
メッセージ11
メッセージ12
メッセージ13
メッセージ14