行きたい日付からパパッと検索!航空券の最安値が見つかる!

Hat Yai
Hat Yai International Airport

Delhi
Indira Gandhi International Airport

 Indira Gandhi Airport Hat Yai 

Prices vary with departure date. Click on the calendar to select a departure date.

Departure Date

2020/5
Sun Mon Tue Wed Thu Fri Sat
1------2------
3------4------5------6------7------8------9------
10------11------12------13------14------15------16------
17------18------19------20------21------22------23------
24------25------26------27------28------29Search30Search
31Search
Select Return Date   Change Departure Date

Return Date

2020/5
SunMonTueWedThuFriSat
1------2------
3------4------5------6------7------8------9------
10------11------12------13------14------15------16------
17------18------19------20------21------22------23------
24------25------26------27------28------29------30------
31------
  Select Departure Date

Currency:US Dollar Loading Searching Fares Updating Fares

Departure Date
Return Date
Total Fares(Round Trip/Economy)

* Displayed fare(s) may differ from the actual search result

  • Hat Yai-Indira Gandhi Airport

    May Lowest Airfares -----
  • Hat Yai-Indira Gandhi Airport

    June Lowest Airfares -----
  • Hat Yai-Indira Gandhi Airport

    July Lowest Airfares -----
  • Hat Yai-Indira Gandhi Airport

    August Lowest Airfares -----
  • Hat Yai-Indira Gandhi Airport

    September Lowest Airfares -----
  • Hat Yai-Delhi
    Estimated Flight Time

    7Hours25Minutes
  • Hat Yai-Delhi
    Number of Operating Airlines

    1
  • Other Destinations from:Hat Yai

    * Fares vary in accordance to seat availability
  • Other Departures to: Delhi

    * Fares vary in accordance to seat availability

Book Budget Flights with skyticket / Cheap Airfares for Flights from
Hat Yai-Indira Gandhi Airport

ステータス:
メッセージ1
メッセージ2
メッセージ3
メッセージ4
メッセージ5
メッセージ6
メッセージ7
メッセージ8
メッセージ9
メッセージ10
メッセージ11
メッセージ12
メッセージ13
メッセージ14