行きたい日付からパパッと検索!航空券の最安値が見つかる!

Helsinki
Helsinki Airport

Oulu
Oulu Airport

 Oulu Airport Helsinki 

Prices vary with departure date. Click on the calendar to select a departure date.

Departure Date

2020/1
Sun Mon Tue Wed Thu Fri Sat
1------2------3------4------
5------6------7------8------9------10------11------
12------13------14------15------16------17------18------
19------20------21------22------23------24Search25117
262482725428Search29Search30Search31Search
Select Return Date   Change Departure Date

Return Date

2020/1
SunMonTueWedThuFriSat
1------2------3------4------
5------6------7------8------9------10------11------
12------13------14------15------16------17------18------
19------20------21------22------23------24------25------
26------27------28------29------30------31------
  Select Departure Date

Currency:US Dollar Loading Searching Fares Updating Fares

Departure Date
Return Date
Total Fares(Round Trip/Economy)

* Displayed fare(s) may differ from the actual search result

  • Helsinki-Oulu
    Estimated Flight Time

    1Hours00Minutes
  • Helsinki-Oulu
    Number of Operating Airlines

    1

Look for cheap LCC air tickets on skyticket!

Great deals for budgeted airfares from Helsinki to Oulu on skyticket!

Cheapest airfares from skyticket for flight route Helsinki to Oulu!

Early flights and red-eye flights on skyticket.

Flying somewhere? skyticket is where to get the cheapest airfares!

Cheapest airfares for overseas trips on skyticket!

Enjoy panoramic views of popular sites worldwide with the cheapest air tickets available from skyticket!

Savor mouthwatering cuisines, see panaromic views, enjoy your holiday at most with the lowest airfares from skyticket!

Budget air tickets for direct flights and transit or stopover flights, all available on skyticket!

Reserve your cheap air tickets on skyticket!

Book Budget Flights with skyticket / Cheap Airfares for Flights from
Helsinki-Oulu Airport

ステータス:
メッセージ1
メッセージ2
メッセージ3
メッセージ4
メッセージ5
メッセージ6
メッセージ7
メッセージ8
メッセージ9
メッセージ10
メッセージ11
メッセージ12
メッセージ13
メッセージ14