行きたい日付からパパッと検索!航空券の最安値が見つかる!

Hiroshima
Hiroshima Airport

Hanoi
Noi Bai International Airport

 Noi Bai Airport Hiroshima 

Prices vary with departure date. Click on the calendar to select a departure date.

Departure Date

2019/11
Sun Mon Tue Wed Thu Fri Sat
1------2------
3------4------5------6------7------8------9------
10------11------12------13------14------15------16------
17------18------19------20------21------22------23------
24------25------26------27735284782947830478
Select Return Date   Change Departure Date

Return Date

2019/11
SunMonTueWedThuFriSat
1------2------
3------4------5------6------7------8------9------
10------11------12------13------14------15------16------
17------18------19------20------21------22------23------
24------25------26------27------28------29------30------
  Select Departure Date

Currency:US Dollar Loading Searching Fares Updating Fares

Departure Date
Return Date
Total Fares(Round Trip/Economy)

* Displayed fare(s) may differ from the actual search result

  • Hiroshima-Hanoi
    Estimated Flight Time

    6Hours05Minutes
  • Hiroshima-Hanoi
    Number of Operating Airlines

    9

Fly to popular areas in Southeast Asia with skyticket!

Airfares from Hiroshima to Hanoi vary daily!

Students Specials! Get your cheap air tickets from skyticket!

Cheapest airfares from skyticket for flight route Hiroshima to Hanoi!

Travel overseas to enjoy tempting gourmet with the cheapest airfares from skyticket!

From Economy class to the luxurious First class, book now with skyticket for the Best Airfares!

Budget travelers! Book cheap air tickets on skyticket!

Look no further! skyticket is where you can get the best deals on air tickets!

Budget air tickets for direct flights and transit or stopover flights, all available on skyticket!

Look for cheap LCC air tickets on skyticket!

Book Budget Flights with skyticket / Cheap Airfares for Flights from
Hiroshima-Noi Bai Airport

ステータス:
メッセージ1
メッセージ2
メッセージ3
メッセージ4
メッセージ5
メッセージ6
メッセージ7
メッセージ8
メッセージ9
メッセージ10
メッセージ11
メッセージ12
メッセージ13
メッセージ14