行きたい日付からパパッと検索!航空券の最安値が見つかる!

Seoul
Incheon International Airport

Urumqi
Urumqi Diwopu International Airport

 Urumqi Diwopu Airport Incheon 

Prices vary with departure date. Click on the calendar to select a departure date.

Departure Date

2020/9
Sun Mon Tue Wed Thu Fri Sat
1------2------3------4------5------
6------7------8------9------10------11------12------
13------14------15------16------17------18------19------
20------21------22------23------24Search2543526413
27425284252944230407
Select Return Date   Change Departure Date

Return Date

2020/9
SunMonTueWedThuFriSat
1------2------3------4------5------
6------7------8------9------10------11------12------
13------14------15------16------17------18------19------
20------21------22------23------24------25------26------
27------28------29------30------
  Select Departure Date

Currency:US Dollar Loading Searching Fares Updating Fares

Departure Date
Return Date
Total Fares(Round Trip/Economy)

* Displayed fare(s) may differ from the actual search result

  • Seoul-Urumqi
    Estimated Flight Time

    6Hours10Minutes
  • Seoul-Urumqi
    Number of Operating Airlines

    13

Search skyticket to find the lowest airfares - from LCCs to the most popular airlines!

Visit popular spots worldwide! Fly on the lowest airfares from skyticket!

Easy reservation on skyticket for budgeted airfares!

From low cost carriers (LCCs) to major airlines - find the cheapest air tickets on skyticket!

Travel to any destination using skyticket's easy booking platform!

Great deals for overseas travels with the cheap air tickets from skyticket!

Budgeted airfares are up for grabs on skyticket!

Easy reservation! Get the best deals on cheap air tickets!

From low cost carriers (LCCs) to major airlines - find budget airfares on skyticket!

Booking made easy on skyticket for cheap air tickets and budgeted airfares!

Book Budget Flights with skyticket / Cheap Airfares for Flights from
Incheon-Urumqi Diwopu Airport

ステータス:
メッセージ1
メッセージ2
メッセージ3
メッセージ4
メッセージ5
メッセージ6
メッセージ7
メッセージ8
メッセージ9
メッセージ10
メッセージ11
メッセージ12
メッセージ13
メッセージ14