行きたい日付からパパッと検索!航空券の最安値が見つかる!

Osaka
Itami Airport (Osaka International Airport)

Busan
Gimhae International Airport

 Gimhae Airport Itami ( ) 

Prices vary with departure date. Click on the calendar to select a departure date.

Departure Date

2019/10
Sun Mon Tue Wed Thu Fri Sat
1------2------3------4------5------
6------7------8------9------10------11------12------
13------14------15------16------17------18------19------
20------21------22------23------24------25------26447
2766628497294473044731477
Select Return Date   Change Departure Date

Return Date

2019/10
SunMonTueWedThuFriSat
1------2------3------4------5------
6------7------8------9------10------11------12------
13------14------15------16------17------18------19------
20------21------22------23------24------25------26------
27------28------29------30------31------
  Select Departure Date

Currency:US Dollar Loading Searching Fares Updating Fares

Departure Date
Return Date
Total Fares(Round Trip/Economy)

* Displayed fare(s) may differ from the actual search result

  • Osaka-Busan
    Estimated Flight Time

    2Hours15Minutes
  • Osaka-Busan
    Number of Operating Airlines

    7

From low cost carriers (LCCs) to major airlines - find budget airfares on skyticket!

Traval the world with the lowest airfares from skyticket!

Search for the lowest price and the shortest route on skyticket!

Cheapest airfares for overseas trips on skyticket!

Get the best deals! Cheap air tickets on skyticket!

Cheap air tickets from Osaka to Busan on skyticket!

Search on skyticket for air tickets between Osaka and Busan.

skyticket for easy and convenient reservation of cheap tickets!

Buy cheap air tickets on skyticket and travel the world!

Best round trip deals! Book cheap air tickets on skyticket!

Book Budget Flights with skyticket / Cheap Airfares for Flights from
Itami ( )-Gimhae Airport

ステータス:
メッセージ1
メッセージ2
メッセージ3
メッセージ4
メッセージ5
メッセージ6
メッセージ7
メッセージ8
メッセージ9
メッセージ10
メッセージ11
メッセージ12
メッセージ13
メッセージ14