行きたい日付からパパッと検索!航空券の最安値が見つかる!

New York
John F. Kennedy International Airport

Kolkata
Netaji Subhas Chandra Bose International Airport

 Netaji Subhas Chandra Bose Airport John F. Kennedy 

Prices vary with departure date. Click on the calendar to select a departure date.

Departure Date

2024/4
Sun Mon Tue Wed Thu Fri Sat
1------2------3------4------5------6------
7------8------9------10------11------12------13------
14------15------16------17------18------19------20------
21------22------23------24------25Search26Search27Search
28Search29Search30Search
Select Return Date   Change Departure Date

Return Date

2024/4
SunMonTueWedThuFriSat
1------2------3------4------5------6------
7------8------9------10------11------12------13------
14------15------16------17------18------19------20------
21------22------23------24------25------26------27------
28------29------30------
  Select Departure Date

Currency:US Dollar Loading Searching Fares Updating Fares

Departure Date
Return Date
Total Fares(Round-Trip/Economy)

* Displayed fare(s) may differ from the actual search result

  • John F. Kennedy-Netaji Subhas Chandra Bose Airport

    April Lowest Airfares -----
  • John F. Kennedy-Netaji Subhas Chandra Bose Airport

    May Lowest Airfares -----
  • John F. Kennedy-Netaji Subhas Chandra Bose Airport

    June Lowest Airfares -----
  • John F. Kennedy-Netaji Subhas Chandra Bose Airport

    July Lowest Airfares -----
  • John F. Kennedy-Netaji Subhas Chandra Bose Airport

    August Lowest Airfares -----
  • New York-Kolkata
    Estimated Flight Time

    16 Hours 00 Minutes
  • New York-Kolkata
    Number of Operating Airlines

    14
  • Other Destinations from:New York

    * Fares vary in accordance to seat availability
  • Other Departures to: Kolkata

    * Fares vary in accordance to seat availability
ステータス:
メッセージ1
メッセージ2
メッセージ3
メッセージ4
メッセージ5
メッセージ6
メッセージ7
メッセージ8
メッセージ9
メッセージ10
メッセージ11
メッセージ12
メッセージ13
メッセージ14