行きたい日付からパパッと検索!航空券の最安値が見つかる!

Osaka
Kansai International Airport

Taipei
Taoyuan International Airport

 Taoyuan Airport Kansai 

Prices vary with departure date. Click on the calendar to select a departure date.

Departure Date

2019/10
Sun Mon Tue Wed Thu Fri Sat
1------2------3------4------5------
6------7------8------9------10------11------12------
13------14------15------16------17------18------19------
20------21------22------23189242162519826242
2719828198291893019831184
Select Return Date   Change Departure Date

Return Date

2019/10
SunMonTueWedThuFriSat
1------2------3------4------5------
6------7------8------9------10------11------12------
13------14------15------16------17------18------19------
20------21------22------23------24------25------26------
27------28------29------30------31------
  Select Departure Date

Currency:US Dollar Loading Searching Fares Updating Fares

Departure Date
Return Date
Total Fares(Round Trip/Economy)

* Displayed fare(s) may differ from the actual search result

  • Osaka-Taipei
    Estimated Flight Time

    2Hours50Minutes
  • Osaka-Taipei
    Number of Operating Airlines

    31

Enjoy breathtaking views of travel spots with easy reservation on skyticket!

skyticket for easy and convenient reservation of cheap tickets!

Enjoy student trips with cheap air tickets from skyticket!

Solo travelers! The best airfares are available here on skyticket!

Couple Travels! Get the lowest air tickets from skyticket!

Easy bookings on skyticket for budget travels!

Budget air tickets for direct flights and transit or stopover flights, all available on skyticket!

Get the best deals! Cheap air tickets on skyticket!

Online reservation available 24-hours a day from skyticket! Search and book your flights to Taoyuan International Airport now!

Search flights from any countries worldwide on skyticket!

Book Budget Flights with skyticket / Cheap Airfares for Flights from
Kansai-Taoyuan Airport

ステータス:
メッセージ1
メッセージ2
メッセージ3
メッセージ4
メッセージ5
メッセージ6
メッセージ7
メッセージ8
メッセージ9
メッセージ10
メッセージ11
メッセージ12
メッセージ13
メッセージ14