行きたい日付からパパッと検索!航空券の最安値が見つかる!

Osaka
Kansai International Airport

Seoul
Incheon International Airport

 Incheon Airport Kansai 

Prices vary with departure date. Click on the calendar to select a departure date.

Departure Date

2020/11
Sun Mon Tue Wed Thu Fri Sat
1------2------3------4------5------6------7------
8------9------10------11------12------13------14------
15------16------17------18------19------20------21------
22------23------24------25------26------27------28Search
2973930483
Select Return Date   Change Departure Date

Return Date

2020/11
SunMonTueWedThuFriSat
1------2------3------4------5------6------7------
8------9------10------11------12------13------14------
15------16------17------18------19------20------21------
22------23------24------25------26------27------28------
29------30------
  Select Departure Date

Currency:US Dollar Loading Searching Fares Updating Fares

Departure Date
Return Date
Total Fares(Round Trip/Economy)

* Displayed fare(s) may differ from the actual search result

  • Osaka-Seoul
    Estimated Flight Time

    1Hours50Minutes
  • Osaka-Seoul
    Number of Operating Airlines

    35

Top Routes for ladies' group travels from Osaka to Seoul!!

Search for the best airfares on skyticket!

Get great deals on cheap air tickets between Osaka and Seoul!

Easy reservation for flights to Seoul without being a member! Search cheap airfares from multiple airlines.

Travel overseas to enjoy tempting gourmet with the cheapest airfares from skyticket!

Make your reservation on skyticket in only 3 minutes!

The cheapest air tickets from skyticket to fly to Asia for scrumptious Asian gourmet!

Students Specials! Get your cheap air tickets from skyticket!

Travel overseas with easy reservation! Get the best air tickets on skyticket!

Search flights from any countries worldwide on skyticket!

Book Budget Flights with skyticket / Cheap Airfares for Flights from
Kansai-Incheon Airport

ステータス:
メッセージ1
メッセージ2
メッセージ3
メッセージ4
メッセージ5
メッセージ6
メッセージ7
メッセージ8
メッセージ9
メッセージ10
メッセージ11
メッセージ12
メッセージ13
メッセージ14