行きたい日付からパパッと検索!航空券の最安値が見つかる!

Osaka
Kansai International Airport

Hanoi
Noi Bai International Airport

 Noi Bai Airport Kansai 

Prices vary with departure date. Click on the calendar to select a departure date.

Departure Date

2019/10
Sun Mon Tue Wed Thu Fri Sat
1------2------3------4------5------
6------7------8------9------10------11------12------
13------14------15------16------17------18------19------
20------21------22------23------24------25------26269
2727128222292803028031336
Select Return Date   Change Departure Date

Return Date

2019/10
SunMonTueWedThuFriSat
1------2------3------4------5------
6------7------8------9------10------11------12------
13------14------15------16------17------18------19------
20------21------22------23------24------25------26------
27------28------29------30------31------
  Select Departure Date

Currency:US Dollar Loading Searching Fares Updating Fares

Departure Date
Return Date
Total Fares(Round Trip/Economy)

* Displayed fare(s) may differ from the actual search result

  • Osaka-Hanoi
    Estimated Flight Time

    5Hours20Minutes
  • Osaka-Hanoi
    Number of Operating Airlines

    32

Fly to popular areas in Southeast Asia with skyticket!

Travel overseas to enjoy tempting gourmet with the cheapest airfares from skyticket!

Students Specials! Get your cheap air tickets from skyticket!

From low cost carriers (LCCs) to major airlines - find your suitable air tickets on skyticket.

Easy reservation on skyticket for budgeted airfares!

Students! Find the lowest airfares for overseas trips on skyticket!

Easy reservation for the cheapest air tickets on skyticket!

From Economy class to the luxurious First class, book now with skyticket for the Best Airfares!

Let skyticket take you around the world! Air tickets available from One-way, Round trip or Multi-stop!

Travel to any destination using skyticket's easy booking platform!

Book Budget Flights with skyticket / Cheap Airfares for Flights from
Kansai-Noi Bai Airport

ステータス:
メッセージ1
メッセージ2
メッセージ3
メッセージ4
メッセージ5
メッセージ6
メッセージ7
メッセージ8
メッセージ9
メッセージ10
メッセージ11
メッセージ12
メッセージ13
メッセージ14