行きたい日付からパパッと検索!航空券の最安値が見つかる!

Busan
Gimhae International Airport

Nagoya
Chubu Centrair International Airport

 Chubu Centrair Airport Gimhae 

Prices vary with departure date. Click on the calendar to select a departure date.

Departure Date

2021/1
Sun Mon Tue Wed Thu Fri Sat
1------2------
3------4------5------6------7------8------9------
10------11------12------13------14------15------16------
17------18------19------20------21------22------23------
24------25------26------27------28------2976930Search
31Search
Select Return Date   Change Departure Date

Return Date

2021/1
SunMonTueWedThuFriSat
1------2------
3------4------5------6------7------8------9------
10------11------12------13------14------15------16------
17------18------19------20------21------22------23------
24------25------26------27------28------29------30------
31------
  Select Departure Date

Currency:US Dollar Loading Searching Fares Updating Fares

Departure Date
Return Date
Total Fares(Round Trip/Economy)

* Displayed fare(s) may differ from the actual search result

  • Gimhae-Chubu Centrair Airport

    March Lowest Airfares

    USD390


    The airfare displayed above is for Japan Airlines


    Set calendar for this month
  • Gimhae-Chubu Centrair Airport

    April Lowest Airfares -----
  • Gimhae-Chubu Centrair Airport

    May Lowest Airfares -----
  • Busan-Nagoya
    Estimated Flight Time

    2Hours50Minutes
  • Busan-Nagoya
    Number of Operating Airlines

    20

Cheapest airfares for overseas trips on skyticket!

Easy reservation! Get the best deals on cheap air tickets!

Look for cheap LCC air tickets on skyticket!

Great deals for budgeted airfares from Busan to Nagoya on skyticket!

Buy cheap air tickets on skyticket and travel the world!

Book the cheapest air tickets on skyticket to travel from Busan to Nagoya.

Search on skyticket for air tickets between Busan and Nagoya.

Cheapest airfares from skyticket for flight route Busan to Nagoya!

Early flights and red-eye flights on skyticket.

Book Budget Flights with skyticket / Cheap Airfares for Flights from
Gimhae-Chubu Centrair Airport

ステータス:
メッセージ1
メッセージ2
メッセージ3
メッセージ4
メッセージ5
メッセージ6
メッセージ7
メッセージ8
メッセージ9
メッセージ10
メッセージ11
メッセージ12
メッセージ13
メッセージ14