行きたい日付からパパッと検索!航空券の最安値が見つかる!

Busan
Gimhae International Airport

Tokyo
Narita International Airport

 Narita Airport Gimhae 

Prices vary with departure date. Click on the calendar to select a departure date.

Departure Date

2021/1
Sun Mon Tue Wed Thu Fri Sat
1------2------
3------4------5------6------7------8------9------
10------11------12------13------14------15------16------
17------18------19------20------21------22------23------
24------25------26------27------28Search2929230Search
31296
Select Return Date   Change Departure Date

Return Date

2021/1
SunMonTueWedThuFriSat
1------2------
3------4------5------6------7------8------9------
10------11------12------13------14------15------16------
17------18------19------20------21------22------23------
24------25------26------27------28------29------30------
31------
  Select Departure Date

Currency:US Dollar Loading Searching Fares Updating Fares

Departure Date
Return Date
Total Fares(Round Trip/Economy)

* Displayed fare(s) may differ from the actual search result

  • Gimhae-Narita Airport

    March Lowest Airfares -----
  • Gimhae-Narita Airport

    April Lowest Airfares -----
  • Gimhae-Narita Airport

    May Lowest Airfares

    USD304


    The airfare displayed above is for Japan Airlines


    Set calendar for this month
  • Busan-Tokyo
    Estimated Flight Time

    2Hours00Minutes
  • Busan-Tokyo
    Number of Operating Airlines

    20

Budget travelers! Book cheap air tickets on skyticket!

Search for popular airline tickets on skyticket!

Travel overseas with skyticket's budgeted airfares!

Cheapest airfares for overseas trips on skyticket!

Early flights and red-eye flights on skyticket.

Booking made easy on skyticket for cheap air tickets and budgeted airfares!

Flying somewhere? skyticket is where to get the cheapest airfares!

Enjoy your holiday with the cheapest air tickets from skyticket!

Easy reservation! Get the best deals on cheap air tickets!

Use skyticket for easy reservation and reasonable fares.

Book Budget Flights with skyticket / Cheap Airfares for Flights from
Gimhae-Narita Airport

ステータス:
メッセージ1
メッセージ2
メッセージ3
メッセージ4
メッセージ5
メッセージ6
メッセージ7
メッセージ8
メッセージ9
メッセージ10
メッセージ11
メッセージ12
メッセージ13
メッセージ14