行きたい日付からパパッと検索!航空券の最安値が見つかる!

Busan
Gimhae International Airport

Saipan
Saipan International Airport

 Saipan Airport Gimhae 

Prices vary with departure date. Click on the calendar to select a departure date.

Departure Date

2020/9
Sun Mon Tue Wed Thu Fri Sat
1------2------3------4------5------
6------7------8------9------10------11------12------
13------14------15------16------17------18------19------
20------21------22------23497245112556726535
27693285792974530747
Select Return Date   Change Departure Date

Return Date

2020/9
SunMonTueWedThuFriSat
1------2------3------4------5------
6------7------8------9------10------11------12------
13------14------15------16------17------18------19------
20------21------22------23------24------25------26------
27------28------29------30------
  Select Departure Date

Currency:US Dollar Loading Searching Fares Updating Fares

Departure Date
Return Date
Total Fares(Round Trip/Economy)

* Displayed fare(s) may differ from the actual search result

  • Busan-Saipan
    Estimated Flight Time

    4Hours05Minutes
  • Busan-Saipan
    Number of Operating Airlines

    9

Cheap air tickets between Busan and Saipan on skyticket!

Reserve your cheap air tickets on skyticket!

Search for the best airfares on skyticket!

Make your reservation on skyticket in only 3 minutes!

Search and book your flights on skyticket's hassle-free platform!

Make your holiday a memorable one with budgeted and low airfares from skyticket!

Travel overseas with easy reservation! Get the best air tickets on skyticket!

Best round trip deals! Book cheap air tickets on skyticket!

Make your reservation on skyticket in only 3 minutes!

Find the best deals for air tickets on skyticket!

Book Budget Flights with skyticket / Cheap Airfares for Flights from
Gimhae-Saipan Airport

ステータス:
メッセージ1
メッセージ2
メッセージ3
メッセージ4
メッセージ5
メッセージ6
メッセージ7
メッセージ8
メッセージ9
メッセージ10
メッセージ11
メッセージ12
メッセージ13
メッセージ14