行きたい日付からパパッと検索!航空券の最安値が見つかる!

New York
LaGuardia Airport

Kumamoto
Kumamoto Airport

 Kumamoto Airport LaGuardia 

Prices vary with departure date. Click on the calendar to select a departure date.

Departure Date

2021/1
Sun Mon Tue Wed Thu Fri Sat
1------2------
3------4------5------6------7------8------9------
10------11------12------13------14------15------16------
17------18------19------20------21------22------23Search
24Search25Search26Search27Search28Search29Search30Search
31Search
Select Return Date   Change Departure Date

Return Date

2021/1
SunMonTueWedThuFriSat
1------2------
3------4------5------6------7------8------9------
10------11------12------13------14------15------16------
17------18------19------20------21------22------23------
24------25------26------27------28------29------30------
31------
  Select Departure Date

Currency:US Dollar Loading Searching Fares Updating Fares

Departure Date
Return Date
Total Fares(Round Trip/Economy)

* Displayed fare(s) may differ from the actual search result

  • LaGuardia-Kumamoto Airport

    January Lowest Airfares -----
  • LaGuardia-Kumamoto Airport

    February Lowest Airfares -----
  • LaGuardia-Kumamoto Airport

    March Lowest Airfares -----
  • LaGuardia-Kumamoto Airport

    April Lowest Airfares -----
  • LaGuardia-Kumamoto Airport

    May Lowest Airfares -----
  • New York-Kumamoto
    Estimated Flight Time

    17Hours22Minutes
  • New York-Kumamoto
    Number of Operating Airlines

    0
  • Other Destinations from:New York

    * Fares vary in accordance to seat availability
  • Other Departures to: Kumamoto

    * Fares vary in accordance to seat availability

Book Budget Flights with skyticket / Cheap Airfares for Flights from
LaGuardia-Kumamoto Airport

ステータス:
メッセージ1
メッセージ2
メッセージ3
メッセージ4
メッセージ5
メッセージ6
メッセージ7
メッセージ8
メッセージ9
メッセージ10
メッセージ11
メッセージ12
メッセージ13
メッセージ14