行きたい日付からパパッと検索!航空券の最安値が見つかる!

London (UK)
London City Airport

Firenze (Italy)
Florence Airport

 Florence Airport London City 

Prices vary with departure date. Click on the calendar to select a departure date.

Departure Date

2019/8
Sun Mon Tue Wed Thu Fri Sat
1------2------3------
4------5------6------7------8------9------10------
11------12------13------14------15------16------17------
18------19------20------21------22------23------24------
25------26------27------28------294063027731Search
Select Return Date   Change Departure Date

Return Date

2019/8
SunMonTueWedThuFriSat
1------2------3------
4------5------6------7------8------9------10------
11------12------13------14------15------16------17------
18------19------20------21------22------23------24------
25------26------27------28------29------30------31------
  Select Departure Date

Currency:US Dollar Loading Searching Fares Updating Fares

Departure Date
Return Date
Total Fares(Round Trip/Economy)

* Displayed fare(s) may differ from the actual search result

  • London (UK)-Firenze (Italy)
    Estimated Flight Time

    2Hours05Minutes
  • London (UK)-Firenze (Italy)
    Number of Operating Airlines

    8

Travel overseas with skyticket's budgeted airfares!

Get the best deals! Cheap air tickets on skyticket!

Look no further! skyticket is where you can get the best deals on air tickets!

Great deals for overseas travels with the cheap air tickets from skyticket!

Cheap and reasonable airfares for trips abroad! Get the best deals on skyticket!

Cheapest airfares from skyticket for flight route London (UK) to Firenze (Italy)!

Buy air tickets on skyticket and travel worldwide!

Easy reservation for the cheapest air tickets on skyticket!

Early flights and red-eye flights on skyticket.

Search and book your flights on skyticket's hassle-free platform!

Book Budget Flights with skyticket / Cheap Airfares for Flights from
London City-Florence Airport

ステータス:
メッセージ1
メッセージ2
メッセージ3
メッセージ4
メッセージ5
メッセージ6
メッセージ7
メッセージ8
メッセージ9
メッセージ10
メッセージ11
メッセージ12
メッセージ13
メッセージ14