行きたい日付からパパッと検索!航空券の最安値が見つかる!

London (UK)
Heathrow Airport

Bilbao
Bilbao Airport

 Bilbao Airport Heathrow 

Prices vary with departure date. Click on the calendar to select a departure date.

Departure Date

2019/11
Sun Mon Tue Wed Thu Fri Sat
1------2------
3------4------5------6------7------8------9------
10------11------12------13------14------15------16------
17------18------19------20------21------22------23------
24------25------26------27291282022917930790
Select Return Date   Change Departure Date

Return Date

2019/11
SunMonTueWedThuFriSat
1------2------
3------4------5------6------7------8------9------
10------11------12------13------14------15------16------
17------18------19------20------21------22------23------
24------25------26------27------28------29------30------
  Select Departure Date

Currency:US Dollar Loading Searching Fares Updating Fares

Departure Date
Return Date
Total Fares(Round Trip/Economy)

* Displayed fare(s) may differ from the actual search result

  • London (UK)-Bilbao
    Estimated Flight Time

    3Hours05Minutes
  • London (UK)-Bilbao
    Number of Operating Airlines

    11

Search for the best airfares on skyticket!

Cheap and reasonable airfares for trips abroad! Get the best deals on skyticket!

Cheapest airfares from skyticket for flight route London (UK) to Bilbao!

Visit popular spots worldwide! Fly on the lowest airfares from skyticket!

Cheap air tickets between London (UK) and Bilbao on skyticket!

Look no further! skyticket is where you can get the best deals on air tickets!

Look for cheap LCC air tickets on skyticket!

Savor mouthwatering cuisines, see panaromic views, enjoy your holiday at most with the lowest airfares from skyticket!

Travel to any destination using skyticket's easy booking platform!

Travel overseas with affordable air tickets on popular airlines!

Book Budget Flights with skyticket / Cheap Airfares for Flights from
Heathrow-Bilbao Airport

ステータス:
メッセージ1
メッセージ2
メッセージ3
メッセージ4
メッセージ5
メッセージ6
メッセージ7
メッセージ8
メッセージ9
メッセージ10
メッセージ11
メッセージ12
メッセージ13
メッセージ14