行きたい日付からパパッと検索!航空券の最安値が見つかる!

London (UK)
Heathrow Airport

Dublin
Dublin Airport

 Dublin Airport Heathrow 

Prices vary with departure date. Click on the calendar to select a departure date.

Departure Date

2019/6
Sun Mon Tue Wed Thu Fri Sat
1------
2------3------4------5------6------7------8------
9------10------11------12------13------14------15------
16------17------18------19------20------21------22------
23------24------25------26------274192838729164
30246
Select Return Date   Change Departure Date

Return Date

2019/6
SunMonTueWedThuFriSat
1------
2------3------4------5------6------7------8------
9------10------11------12------13------14------15------
16------17------18------19------20------21------22------
23------24------25------26------27------28------29------
30------
  Select Departure Date

Currency:US dollar Loading Searching Fares Updating Fares

Departure Date
Return Date
Total Fares(Round Trip/Economy)

* Displayed fare(s) may differ from the actual search result

  • London (UK)-Dublin
    Estimated Flight Time

    1Hours20Minutes
  • London (UK)-Dublin
    Number of Operating Airlines

    17

Flying somewhere? skyticket is where to get the cheapest airfares!

Great deals for overseas travels with the cheap air tickets from skyticket!

Easy reservation on skyticket! Fly on the lowest airfares available!

Enjoy your holiday with the cheapest air tickets from skyticket!

Easy reservation with skyticket! Recommended low airfare searches!

Cheap and reasonable airfares for trips abroad! Get the best deals on skyticket!

Early bird low airfares from London (UK) to Dublin!

Visit popular spots worldwide! Fly on the lowest airfares from skyticket!

Search and book your flights on skyticket's hassle-free platform!

Use skyticket for budget holiday.

Book Budget Flights with skyticket / Cheap Airfares for Flights from
Heathrow-Dublin Airport

ステータス:
メッセージ1
メッセージ2
メッセージ3
メッセージ4
メッセージ5
メッセージ6
メッセージ7
メッセージ8
メッセージ9
メッセージ10
メッセージ11
メッセージ12
メッセージ13
メッセージ14