行きたい日付からパパッと検索!航空券の最安値が見つかる!

London (UK)
Heathrow Airport

Tokyo
Narita International Airport

 Narita Airport Heathrow 

Prices vary with departure date. Click on the calendar to select a departure date.

Departure Date

2019/6
Sun Mon Tue Wed Thu Fri Sat
1------
2------3------4------5------6------7------8------
9------10------11------12------13------14------15------
16------17------18------19------20------21------22------
23------24------25------26------2785328887291,068
30836
Select Return Date   Change Departure Date

Return Date

2019/6
SunMonTueWedThuFriSat
1------
2------3------4------5------6------7------8------
9------10------11------12------13------14------15------
16------17------18------19------20------21------22------
23------24------25------26------27------28------29------
30------
  Select Departure Date

Currency:US dollar Loading Searching Fares Updating Fares

Departure Date
Return Date
Total Fares(Round Trip/Economy)

* Displayed fare(s) may differ from the actual search result

  • London (UK)-Tokyo
    Estimated Flight Time

    11Hours45Minutes
  • London (UK)-Tokyo
    Number of Operating Airlines

    38

Get the best deals! Cheap air tickets on skyticket!

Cheapest airfares for overseas trips on skyticket!

Easy reservation on skyticket! Fly on the lowest airfares available!

Easy reservation and cheapest tickets! Get the best travel deals on skyticket!

Travel worldwide to anywhere in Europe, Asia or America with the best airfares! Search now on skyticket!

From low cost carriers (LCCs) to major airlines - find your suitable air tickets on skyticket.

Travel to any destination using skyticket's easy booking platform!

Enjoy panoramic views of popular sites worldwide with the cheapest air tickets available from skyticket!

Easy reservation on skyticket for budgeted airfares!

Easy reservation with skyticket! Recommended low airfare searches!

Book Budget Flights with skyticket / Cheap Airfares for Flights from
Heathrow-Narita Airport

ステータス:
メッセージ1
メッセージ2
メッセージ3
メッセージ4
メッセージ5
メッセージ6
メッセージ7
メッセージ8
メッセージ9
メッセージ10
メッセージ11
メッセージ12
メッセージ13
メッセージ14