行きたい日付からパパッと検索!航空券の最安値が見つかる!

Los Angeles
Los Angeles International Airport

Calgary
Calgary International Airport

 Calgary Airport Los Angeles 

Prices vary with departure date. Click on the calendar to select a departure date.

Departure Date

2019/9
Sun Mon Tue Wed Thu Fri Sat
1------2------3------4------5------6------7------
8------9------10------11------12------13------14------
15------16------17------18------19------20------21------
22------23------24------25------26------27------28453
2937930360
Select Return Date   Change Departure Date

Return Date

2019/9
SunMonTueWedThuFriSat
1------2------3------4------5------6------7------
8------9------10------11------12------13------14------
15------16------17------18------19------20------21------
22------23------24------25------26------27------28------
29------30------
  Select Departure Date

Currency:US Dollar Loading Searching Fares Updating Fares

Departure Date
Return Date
Total Fares(Round Trip/Economy)

* Displayed fare(s) may differ from the actual search result

  • Los Angeles-Calgary
    Estimated Flight Time

    2Hours58Minutes
  • Los Angeles-Calgary
    Number of Operating Airlines

    6

Get great deals on cheap air tickets between Los Angeles and Calgary!

Search for the lowest price and the shortest route on skyticket!

Get great deals on the lowest airfares from skyticket!

Make your reservation on skyticket in only 3 minutes!

Budgeted airfares are up for grabs on skyticket!

Use skyticket for easy reservation and reasonable fares.

Travel overseas with affordable air tickets on popular airlines!

From low cost carriers (LCCs) to major airlines - find budget airfares on skyticket!

Travel overseas on a budget! Get the best travel deals on skyticket!

Great deals for overseas travels with the cheap air tickets from skyticket!

Book Budget Flights with skyticket / Cheap Airfares for Flights from
Los Angeles-Calgary Airport

ステータス:
メッセージ1
メッセージ2
メッセージ3
メッセージ4
メッセージ5
メッセージ6
メッセージ7
メッセージ8
メッセージ9
メッセージ10
メッセージ11
メッセージ12
メッセージ13
メッセージ14