行きたい日付からパパッと検索!航空券の最安値が見つかる!

Los Angeles
Los Angeles International Airport

Fukuoka
Fukuoka Airport

 Fukuoka Airport Los Angeles 

Prices vary with departure date. Click on the calendar to select a departure date.

Departure Date

2019/7
Sun Mon Tue Wed Thu Fri Sat
1------2------3------4------5------6------
7------8------9------10------11------12------13------
14------15------16------17------18------19------20------
21------22------23------24------25Search261,01727910
28Search291,05330967311,276
Select Return Date   Change Departure Date

Return Date

2019/7
SunMonTueWedThuFriSat
1------2------3------4------5------6------
7------8------9------10------11------12------13------
14------15------16------17------18------19------20------
21------22------23------24------25------26------27------
28------29------30------31------
  Select Departure Date

Currency:US dollar Loading Searching Fares Updating Fares

Departure Date
Return Date
Total Fares(Round Trip/Economy)

* Displayed fare(s) may differ from the actual search result

  • Los Angeles-Fukuoka
    Estimated Flight Time

    13Hours00Minutes
  • Los Angeles-Fukuoka
    Number of Operating Airlines

    18

From low cost carriers (LCCs) to major airlines - find the cheapest air tickets for routes from Los Angeles to Fukuoka on skyticket!

Make your holiday a memorable one with budgeted and low airfares from skyticket!

Travel overseas with easy reservation! Get the best air tickets on skyticket!

Search and book your flights on skyticket's hassle-free platform!

Search and book the cheapest air tickets on skyticket!!

Buy air tickets on skyticket and travel worldwide!

Search on skyticket for air tickets between Los Angeles and Fukuoka.

Book air tickets on skyticket and get the best travel deals!

Cheap and reasonable airfares for trips abroad! Get the best deals on skyticket!

Flying somewhere? skyticket is where to get the cheapest airfares!

Book Budget Flights with skyticket / Cheap Airfares for Flights from
Los Angeles-Fukuoka Airport

ステータス:
メッセージ1
メッセージ2
メッセージ3
メッセージ4
メッセージ5
メッセージ6
メッセージ7
メッセージ8
メッセージ9
メッセージ10
メッセージ11
メッセージ12
メッセージ13
メッセージ14