行きたい日付からパパッと検索!航空券の最安値が見つかる!

Los Angeles
Los Angeles International Airport

Seoul
Incheon International Airport

 Incheon Airport Los Angeles 

Prices vary with departure date. Click on the calendar to select a departure date.

Departure Date

2020/5
Sun Mon Tue Wed Thu Fri Sat
1------2------
3------4------5------6------7------8------9------
10------11------12------13------14------15------16------
17------18------19------20------21------22------23------
24------25------26------27------281,006291,430301,108
311,891
Select Return Date   Change Departure Date

Return Date

2020/5
SunMonTueWedThuFriSat
1------2------
3------4------5------6------7------8------9------
10------11------12------13------14------15------16------
17------18------19------20------21------22------23------
24------25------26------27------28------29------30------
31------
  Select Departure Date

Currency:US Dollar Loading Searching Fares Updating Fares

Departure Date
Return Date
Total Fares(Round Trip/Economy)

* Displayed fare(s) may differ from the actual search result

  • Los Angeles-Seoul
    Estimated Flight Time

    13Hours20Minutes
  • Los Angeles-Seoul
    Number of Operating Airlines

    34

Top Routes for ladies' group travels from Los Angeles to Seoul!!

Easy bookings on skyticket for budget travels!

Traval the world with the lowest airfares from skyticket!

Travel overseas to enjoy tempting gourmet with the cheapest airfares from skyticket!

Students Specials! Get your cheap air tickets from skyticket!

The cheapest air tickets from skyticket to fly to Asia for scrumptious Asian gourmet!

Buy air tickets on skyticket and travel worldwide!

Cheap and reasonable airfares for trips abroad! Get the best deals on skyticket!

Let skyticket take you around the world! Air tickets available from One-way, Round trip or Multi-stop!

From low cost carriers (LCCs) to major airlines - find the cheapest air tickets for routes from Los Angeles to Seoul on skyticket!

Book Budget Flights with skyticket / Cheap Airfares for Flights from
Los Angeles-Incheon Airport

ステータス:
メッセージ1
メッセージ2
メッセージ3
メッセージ4
メッセージ5
メッセージ6
メッセージ7
メッセージ8
メッセージ9
メッセージ10
メッセージ11
メッセージ12
メッセージ13
メッセージ14